Seether

Seether – Broken

Tablature gratuite de la chanson “Broken” de Seether.

Tablature, accords, paroles:

Main riff:

  Em          Csus2               Em          Csus2
E|-----------------------3-------|---------------------3----------|
B|-7h8------8--3-----3-----3---3-|-7h8------8--3---------3--------|
G|--------0-0--0---0---0-----0---|--------0-0--0-----0-----0---0--|
D|-------------------------------|--------------------------------|
A|-7----7---7--3---3-------------|-7----7---7--3---3---------3----|
E|-------------------------------|--------------------------------|


  Em          Csus2               D               D
E|-----------------------3-------|-0h2-----3p2----0h2-----3p2—----|
B|-7h8------8--3-----3-----3---3-|-------3------3-----3------3----|
G|--------0-0--0---0---0-----0---|-----2----------------2-------2-|
D|-------------------------------|-0------------------------------|
A|-7----7---7--3---3-------------|--------------------------------|
E|-------------------------------|--------------------------------|


Intro : main riff x1


1st verse:
Em     Csus2         Em      C sus2
 I wanted you to know I love the way you laugh
Em     Csus2                D          D
 I wanna hold you high and steal your pain away
Em      Csus2          Em      Csus2
 I keep your photograph I know it serves me well
Em     Csus2                D         D
 I wanna hold you high and steal your pain




Chorus:
          C  Em*          C Em*
‘Cause I’m broken when I'm open
           C     Em*       C       Em*
And I don’t feel like I am strong enough
          C  Em*          C  Em*
‘Cause I'm broken when I'm lonsome
           C    Em*            C      Em*>let ring
And I don't feel rite when your gone away


Main riff x1
2nd verse:
Em         Csus2      Em      Csus2
 The worst is over now and we can breathe again
Em     C                     D       D
 I wanna hold you high, you steal my pain away
Em          Csus2             Em       Csus2
 There’s so much left to learn, and no one left to fight
Em     Csus2                D         D
 I wanna hold you high and steal your pain



Chorus:
          C  Em*          C Em*
‘Cause I’m broken when I'm open
           C    Em*       C       Em*
And I don’t feel like I am strong enough
          C  Em*          C  Em*
‘Cause I'm broken when I'm lonsome
           C    Em*            C      Em*>let ring
And I don't feel rite when your gone away



Solo: Main riff x2



Chorus:
          C  Em*          C Em*
‘Cause I’m broken when I'm open
           C    Em*       C       Em*
And I don’t feel like I am strong enough
          C  Em*          C  Em*
‘Cause I'm broken when I'm lonsome
           C    Em*            C      Em*>let ring
And I don't feel rite when your gone away



Outro :

[Em*-Csus2][Em*-Csus2][Em*-Csus2][D] x2
[Em]>let ring

3 Comments

Leave a Reply

Ce site utilise Akismet pour réduire les indésirables. En savoir plus sur comment les données de vos commentaires sont utilisées.