Radiohead

Radiohead – No surprises

Vidéo guitare et chant, tablature, accords, paroles de la chanson “No surprises” de Radiohead

Tablature : accords, paroles

Accords utilisés:
F   133211
Dm  x00231
Bb  x13331
c   x32010  


Intro:
F F F Bb (x2)


  F                           Dm 
A heart thats full up like a land fill
                  Bb
A job that slowly kills you
C
Bruises that won't heal

F F F Bb

 F 
You look so tired and happy
 Dm
Bring down the government
   Bb
They don't
 C
They don't speak for us

F F F Bb

 F
I'll take a quiet life
  Dm 
A handshake of carbon monoxide
    Bb              C
And no alarms and no surprises
Bb              C
No alarms and no surprises
Bb              C
No alarms and no surprises
F F F Bb
Silence
F F F Bb
Silence

 F      
This is my final fit
     Dm
My final Belly-ache
     Bb              C
With No alarms and no surprises
Bb              C   
No alarms and no surprises
Bb              C
No alarms and no surprises
F F F Bb
Please

BRIDGE
   C                                A#
---------------------------------------------6--5---3-------------
------5-------5h6p5--------------------3----------------6---------
----5-----5----------5------5--------3----3-----------------------
--5---------------------5----------3------------------------------
------------------------------------------------------------------
------------------------------------------------------------------

   C                                A#
---------------------------------------------6--5---3-------------
------5-------5h6p5--------------------3----------------6---------
----5-----5----------5------5--------3----3-----------------------
--5---------------------5----------3------------------------------
------------------------------------------------------------------
------------------------------------------------------------------
  Gm
---3-----------------------------
---3---------------------6---8---
---3---------------6--8----------
---5----5/7--5--7----------------
---5-----------------------------
---3-----------------------------


F
Such a pretty house
      Dm
And such a pretty garden
 Bb              C    
No alarms and no surprises
 Bb             C
No alarms and no surprises
 Bb             C
No alarms and no surprises
F F F Bb
Please
F F F Bb
F

3 Comments

Leave a Reply

Ce site utilise Akismet pour réduire les indésirables. En savoir plus sur comment les données de vos commentaires sont utilisées.