Pink Floyd

Pink Floyd – Is there anybody out there

Vidéo guitare, tablature gratuite, accords de la chanson «Is there anybody out there» de Pink Floyd.
Tablature:

|-------0--------|------0----------|------0---------|------0----------|
|-----1---1------|-----1---1-------|----1---1-------|----1---1--------|
|---2------2---2-|---2-------2---2-|---2------2---2-|---2-------2---2-|
|-2----------2---|-3-----------3---|-4----------4---|-3-----------3---|
|----------------|-----------------|----------------|-----------------|
|----------------|-----------------|----------------|-----------------|


|-------0--------0-|-------0-------0-|---------0-------|-----------------|
|-----1--------1---|-----1-------1---|-------1---1-----|-----------1-----|
|---2--------2-----|---2-------2-----|-----2-------2---|---------2---2---|
|-2--------0-------|-----------------|---2-----------2-|---2---2-------2-|
|------------------|-3-------2-------|-0---------------|-0---0-----------|
|------------------|-----------------|-----------------|-----------------|


|---------0------|-----------------|
|-------1---1----|-----------1-----|
|-----2-------2--|---------2-------|
|---2-----------2|---2---2---------|
|-0--------------|-0---0-----------|
|----------------|-----------------|


|-------0--------|-------0---------|-------0--------|-------0---------|
|-----1---1------|-----1---1-------|-----1---1------|-----1---1-------|
|---2------2---2-|---2-------2---2-|---2------2---2-|---2-------2---2-|
|-2----------2---|-3-----------3---|-4----------4---|-3-----------3---|
|----------------|-----------------|----------------|-----------------|
|----------------|-----------------|----------------|-----------------|





|-------0-------0-|---------0-------|---------0------|---------0-------|
|-----1-------1---|-----1-----1---1-|-----1----------|-------1---1-----|
|---2-------2-----|---2---2-----2---|---2---2--------|-----2-------2---|
|-3-------2-------|-0---------------|-0--------------|---2-----------2-|
|-----------------|-----------------|-------------3-2|-0---------------|
|-----------------|-----------------|----------------|-----------------|


|-----------------|---------0-------|----------------|
|-----------1-----|-------1---1-----|-----------1----|
|---------2---2---|-----2-------2---|---------2------|
|---2---2-------2-|---2-----------2-|---2---2--------|
|-0---0-----------|-0---------------|-0---0--------0-|
|-----------------|-----------------|----------------|


|---------0-------|---------0-------|---------0-------|-----------------|
|-----1-----1---1-|-----1-----3p1---|-----1-----------|-5-5p3-3p1-1p0-0-|
|---0---0-----0---|---0---0---------|---0---0---------|-----------------|
|-----------------|-----------------|-----------------|-----------------|
|-3---------------|-2---------------|-0---------------|-----------------|
|-----------------|-----------------|-----------------|-----------------|

|---------0-------|---------0-------|---------0-------|---8------7------|
|-----1-----1---1-|-----1-----3p1---|-----1-----------|-----------------|
|---0---0-----0---|---0---0---------|---0---0---------|-9------7--------|
|-----------------|-----------------|-----------------|-----------------|
|-3---------------|-2---------------|-0---------------|-----------------|
|-----------------|-----------------|-----------------|-----------------|


|-------0--------|------0----------|------0---------|------0----------|
|-----1---1------|-----1---1-------|----1---1-------|----1---1--------|
|---2------2---2-|---2-------2---2-|---2------2---2-|---2-------2---2-|
|-2----------2---|-3-----------3---|-4----------4---|-3-----------3---|
|----------------|-----------------|----------------|-----------------|
|----------------|-----------------|----------------|-----------------|


|-------0--------0-|-------0-------0-|-----------------|-5-7-8------12---|
|-----1--------1---|-----1-------1---|-------1----1/5--|------------10---|
|---2--------2-----|---2-------2-----|-----2-----------|------------9----|
|-2--------0-------|-----------------|---2-------------|------------10---|
|------------------|-3-------2-------|-0---------------|------------0----|
|------------------|-----------------|-----------------|-----------------|

Leave a Reply

Ce site utilise Akismet pour réduire les indésirables. En savoir plus sur comment les données de vos commentaires sont utilisées.