Pink Floyd

Pink Floyd – Money

Vidéo guitare, tablature gratuite, accords de la chanson «Money» de Pink Floyd.

Tablature:

Intro:
E|-----------------------------------------------------|
B|-----------------------------------------------------|
G|-----4-----------------------4-----------------------|
D|--------4-----------------------4--------------------|
A|--2--------2--------2--5--2--------2--------2--0--5--|
E|--------------2--5--------------------2--5-----------|
Po  Ch
E|-----------------------------------------------------|
B|-----------------------------------------------------|
G|-----4-----------------------4-----------------------|
D|--------4-----------------------4--------------------|
A|--2--------2--------2--5--2--------2--------2--5-----|
E|--------------2--5--------------------2--5-----------|
Ch
E|----------------------------------------------------|
B|----------------------------------------------------|
G|----------------------------------------------------|
D|--4--4-----4-------------4--3--2--------------------|
A|--------4-------------4-------------------0--2--5---|
E|----------------2--5----------------0--3------------|
Ch
Solo:
b	- Bend
h	- Hammer On
p	- Pull off
s	- Slide to note
\	- Slide down neck
/	- Slide up neck
Part 1
------
e|---------------------------------12-------|-------12b14---------------------|
B|--------10b12-7-10---------10s12----12-12-|-12-12-------12-12-s9------------|
G|-9b11-7-------------9b11-7----------------|----------------------9b11-7-9---|
D|------------------------------------------|-------------------------------9-|
A|------------------------------------------|---------------------------------|
E|------------------------------------------|---------------------------------|
e|--------7----------10-12-12b14r12p10----10b11-|
B|------7---10-10s12-------------------12-------|
G|-9b11-----------------------------------------|
D|----------------------------------------------|
A|----------------------------------------------|
E|----------------------------------------------|
e|-12b14r12-10-12-----------------------------------------------|
B|----------------12-10-----------------------------------------|
G|----------------------10s9-7b---------------------------7-7---|
D|------------------------------9-7---------------7-9p7-------9-|
A|----------------------------------8s7-5---5s7-9-------9-------|
E|----------------------------------------7---------------------|
e|-------7----------------10-12-12b14r12p10----|-14b16-14-12-10--------------|
B|-----7---10-10s12-12-12-------------------12-|----------------12-10--------|
G|-7b9-----------------------------------------|----------------------9-9s11-|
D|---------------------------------------------|-----------------------------|
A|---------------------------------------------|-----------------------------|
E|---------------------------------------------|-----------------------------|
e|---------------------------------------------------------7-|
B|-10b12-10-8-7------------7b---9---10-10-10-10-10-10------7-|
G|--------------9-7-6------7b---9---11-11-11-11-11-11--------|
D|--------------------10-9----9---9-------------------9b11---|
A|-----------------------------------------------------------|
E|-----------------------------------------------------------|
Part 2
------
e|-7----------10-7------------------------------------------------------------------|
B|-7-12-12-12----7------------------------------------------------------------------|
G|-----------------9b11-7-9-----7-7-7-7-7-----9b11-9b11-9b11-9b11r9p7-9b11-9b11r9---|
D|--------------------------9-9-7-7-7-7-7-7h9-------------------------------------9-|
A|----------------------------------------------------------------------------------|
E|----------------------------------------------------------------------------------|
e|-------------------------10-------12b14-12b14r12-12p10---------------------------|
B|-------------------10s12----12-10----------------------10-10-10------------------|
G|-7b9r7-7b9r7b9r7------------------------------------------------9s11-9b11r9b11s4-|
D|-----------------9---------------------------------------------------------------|
A|---------------------------------------------------------------------------------|
E|---------------------------------------------------------------------------------|
Part 3
------
e|-------------------------------|------------------------------------------|
B|-----------------------7---9---|-----------15-17-17b19-17b19r17-15-17-----|
G|-4-2-0-----------------7---9---|-----14-16----------------------------16\-|
D|-------4-0-2-0-----------9---9-|-/16--------------------------------------|
A|---------------4-0-3-2---------|------------------------------------------|
E|-------------------------------|------------------------------------------|
e|-19-22b24-22-22-22---------------------------------|
B|-------------------22b24\-----15-17b19-15b17r15----|
G|--------------------------/16-------------------16-|
D|---------------------------------------------------|
A|---------------------------------------------------|
E|---------------------------------------------------|
e|--------------------------------------------------|
B|-19b21r19-17-15b17-------------------------15b----|
G|-------------------16-------------------16-----16-|
D|----------------------12s14-12-14-14s16-----------|
A|--------------------------------------------------|
E|--------------------------------------------------|
e|----22b24-22-22-22----------------------------------------------------22-------|
B|-19----------------22b24-22b26r22b24----------------------22b24-22b24----22b24-|
G|-------------------------------------21b23-19-21b23-21b23----------------------|
D|-------------------------------------------------------------------------------|
A|-------------------------------------------------------------------------------|
E|-------------------------------------------------------------------------------|
e|----22b24-22-22-22-------------------------------------|
B|-19----------------22b24-19-22-------------------------|
G|-------------------------------21b23-19-16-14-14b16----|
D|----------------------------------------------------16-|
A|-------------------------------------------------------|
E|-------------------------------------------------------|
e|-------------------------------|
B|-------------------------------|
G|-14b16-14-12-11----------------|
D|----------------14-12-11-------|
A|-------------------------15-14-|
E|-------------------------------|

Leave a Reply

Ce site utilise Akismet pour réduire les indésirables. En savoir plus sur comment les données de vos commentaires sont utilisées.