Dire Straits

Dire Straits – Romeo and Juliet

Vidéo guitare, tablature gratuite, accords de la chanson «Romeo and Juliet» de Dire Straits.

Tablature, accords, paroles

Tablature:
Intro:
e|-5---------5--------5p3-0----1---------1--0h1-3--
B|-6------6--6-----6-----------3------3--3---------
G|-5----5----5--5--------------3----3----3---------
D|-7--7------------------------3--3----------------
A|-------------------------------------------------
E|-------------------------------------------------
e|-5---------5-----------1--5p3-0----1---------1--
B|-6------6--6---------1-------------3------3--3--
G|-5----5----5-------2---------------3----3----3--
D|-7--7------------3-----------------3--3---------
A|---------------3--------------------------------
E|------------------------------------------------
e|-0----5---------5------5p3-0----1---------1--
B|-1----6------6--6----6----------3------3--3--
G|-0----5----5----5--5------------3----3----3--
D|-2----7--7----------------------3--3---------
A|-3-------------------------------------------
E|-3-------------------------------------------
e|-5-3--5---------5---------0--5p3-0----1---------1----0--
B|------6------5--6-------1-------------3------3--3----1--
G|------5----6----5-----0---------------3----3----3----0--
D|------7--7----------2-----------------3--3-----------2--
A|------------------3----------------------------------3--
E|-----------------------------------------------------3--
Couplets:
e|-5--------------------------x--1--------------------------------3--5--
B|-6--------------------------x--3--------------------------------5--6--
G|-5--------------------------x--2--------------------------------5--5--
D|-7--------------------------x--0--------------------------------5--7--
A|----------------------------------------------------------------3-----
E|----------------------------------------------------------------------
e|-----------------------3--1------------1-1-1-1-1-1-1-1--1/3--3--
B|-----------------------5--3------------3-3-3-3-3-3-3-3--3/5--5--
G|-----------------------5--2------------3-3-3-3-3-3-3-3--3/5--5--
D|-----------------------5--0------------3-3-3-3-3-3-3-3--3/5--5--
A|-----------------------3---------------1-1-1-1-1-1-1-1--1/3--3--
E|----------------------------------------------------------------
e|-3-3-3-3-3-3-3-3-3-3-3--------1/3-3-3-3-3-3-3-3-3-3-3--1-1----------------1--
B|-5-5-5-5-5-5-5-5-5-5-5--------3/5-5-5-5-5-5-5-5-5-5-5--1-1-------------1-----
G|-5-5-5-5-5-5-5-5-5-5-5--------3/5-5-5-5-5-5-5-5-5-5-5--2-2----------2--------
D|-5-5-5-5-5-5-5-5-5-5-5--------3/5-5-5-5-5-5-5-5-5-5-5--3-3------3------------
A|-3-3-3-3-3-3-3-3-3-3-3--------1/3-3-3-3-3-3-3-3-3-3-3--3-3--3----------------
E|-------------------------------------------------------1-1-------------------
e|-1--1--1--1--1--1--1--1--1--1--1--0--
B|-3--3--3--3--3--3--3--3--3--3--3--1--
G|-3--3--3--3--3--3--3--3--3--3--3--0--
D|-3--3--3--3--3--3--3--3--3--3--3--2--
A|-1--1--1--1--1--1--1--1--1--1--1--3--
E|----------------------------------3--
Fill 1:
e|-0-0-------- 
B|-----3-1---- 
G|---------2-- 
D|------------ 
A|------------   
E|------------
Pre-Refrain:
e|-1-------------------------------------0--1-----------------------------------0--1---
B|-1-------------------------------------1--3-----------------------------------1--1---
G|-2-------------------------------------0--2-----------------------------------0--2---
D|-3-------------------------------------2--0-----------------------------------2--3---
A|-3-------------------------------------3--------------------------------------3--3---
E|-1-------------------------------------3--------------------------------------3--1---
e|-------------------------------0--1-1-1-1-1-1-1-1-1-1-1-1-1--1----------1/3--3--
B|-------------------------------1--3-3-3-3-3-3-3-3-3-3-3-3-3--3----------3/5--5--
G|-------------------------------0--2-2-2-2-2-2-2-2-2-2-2-2-2--3----------3/5--5--
D|-------------------------------2--0-0-0-0-0-0-0-0-0-0-0-0-0--3----------3/5--5--
A|-------------------------------3-----------------------------1----------1/3--3--
E|-------------------------------3------------------------------------------------
e|-3-3-3-3-3-3-3-3-3-3-3--1/3---3-3-3-3-3-3-3-3-3-3--1--1----------1--
B|-5-5-5-5-5-5-5-5-5-5-5--3/5---5-5-5-5-5-5-5-5-5-5--1--1--------1----
G|-5-5-5-5-5-5-5-5-5-5-5--3/5---5-5-5-5-5-5-5-5-5-5--2--2------2------
D|-5-5-5-5-5-5-5-5-5-5-5--3/5---5-5-5-5-5-5-5-5-5-5--3--3----3--------
A|-3-3-3-3-3-3-3-3-3-3-3--1/3---3-3-3-3-3-3-3-3-3-3--3--3--3----------
E|---------------------------------------------------1--1-------------
e|-1-1-1-1-1-1-1-1-1-1-1-1-1-1--0--
B|-3-3-3-3-3-3-3-3-3-3-3-3-3-3--1--
G|-3-3-3-3-3-3-3-3-3-3-3-3-3-3--0--
D|-3-3-3-3-3-3-3-3-3-3-3-3-3-3--2--
A|-1-1-1-1-1-1-1-1-1-1-1-1-1-1--3--
E|------------------------------3--
Refrain:
e|-1-1-1-1-1-1-1--0--1-1-1-1-1-1-1--0--1-1-1-1-1-1-1--
B|-1-1-1-1-1-1-1--1--3-3-3-3-3-3-3--1--3-3-3-3-3-3-3--
G|-2-2-2-2-2-2-2--0--2-2-2-2-2-2-2--0--3-3-3-3-3-3-3--
D|-3-3-3-3-3-3-3--2--0-0-0-0-0-0-0--2--3-3-3-3-3-3-3--
A|-3-3-3-3-3-3-3--3-----------------3--1-1-1-1-1-1-1--
E|-1-1-1-1-1-1-1--3-----------------3-----------------
e|-1-1-1-1-1-1-1-1--0--1-1-1-1-1-1-1-1-1-1-1-1-1---3-1--
B|-1-1-1-1-1-1-1-1--1--3-3-3-3-3-3-3-3-3-3-3-3-3---5-3--
G|-2-2-2-2-2-2-2-2--0--2-2-2-2-2-2-2-2-2-2-2-2-2---5-3--
D|-3-3-3-3-3-3-3-3--2--0-0-0-0-0-0-0-0-0-0-0-0-0---5-3--
A|-3-3-3-3-3-3-3-3--3------------------------------3-1--
E|-1-1-1-1-1-1-1-1--3----------------------------------
e|-1---1------3---1------1---------------------1/3--3--
B|-1---3------5---3------3---------------------3/5--5--
G|-2---3------5---3------2---------------------3/5--5--
D|-3---3------5---3------0---------------------3/5--5--
A|-3---1------3---1----------------------------1/3--3--
E|-1---------------------------------------------------
e|-1-1-1-1-1-1-1-1--0--1-1-1-1-1-1-1-1-----3-----1--0--1--
B|-1-1-1-1-1-1-1-1--1--3-3-3-3-3-3-3-3-----5-----3--1--1--
G|-2-2-2-2-2-2-2-2--0--2-2-2-2-2-2-2-2-----5-----3--0--2--
D|-3-3-3-3-3-3-3-3--2--0-0-0-0-0-0-0-0-----5-----3--2--3--
A|-3-3-3-3-3-3-3-3--3----------------------3-----1--3--3--
E|-1-1-1-1-1-1-1-1--3----------------------------------3--
Bridge:
e|---------1-5p3-0----1---------1--0h1-3----5---------5-----5-3-0--
B|-------1------------3------3--3-----------6------6--6---6--------
G|-----2--------------3----3----3-----------5----5----5--5---------
D|---3----------------3--3------------------7--7-------------------
A|-3---------------------------------------------------------------
E|-----------------------------------------------------------------
e|-1----------1-------0--
B|-3-------3--3-------1--
G|-3----3-----3-------0--
D|-3--3---------------2--
A|--------------------3--
E|--------------------3--
Then Play Verse(x1)
Then Pre-chorus(x1)
Then Chorus(x1)
Then Bridge(x1)
Then Play Verse(x1)
Fill 2:
e|-3---1---0---1--
B|-5---3---1---1--
G|-5---3---0---2--
D|-5---3---2---3--
A|-3---1---3---3--
E|---------3---1--
Pre-Refrain(x1)
Refrain(x1)
Then Bridge(x1)
Fill 3:
e|-5---------5------5-3-0----1---------1--0h1-3--
B|-6------6--6----6----------3------3--3---------
G|-5----5----5--5------------3----3----3---------
D|-7--7----------------------3--3----------------
A|-----------------------------------------------
E|-----------------------------------------------
e|--5---------5--5-3-5-----3--1-----1--
B|--6------6--6------------------3--1--
G|--5----5----5---------------------2--
D|--7--7----------------------------3--
A|----------------------------------3--
E|----------------------------------1--
Accords, paroles :
intro:
F   Dm   x4
Couplet 1:
F                C Dm                         C F
A lovestruck Romeo sings the streets a serenade
F                C Dm             C           Bb 
Laying everybody low with a love song that he made
C                         Bb C            F                     
Finds a street light steps out into the shade
Bb                           C  
Says something like you and me babe, how about it?   
F                          C Dm                        C F	
Juliet says hey it's Romeo, you nearly gave me a heart attack
F                         C Dm                          C Bb
He's underneath the window, she's singing hey la my boyfriends back
C                           Bb  C                        F  
you shouldn't come around here singing up to people like that
Bb                        C                  
Anyway, what you gonna do about it?
Refrain 1:
F      C             Dm C             Bb
Juliet the dice was loaded from the start
F      C             Dm C             Bb 	
And I bet, and you exploded in my heart.
F      C             Dm              Bb 
And I forget, I forget, the movie song
Gm                                  F        Bb    C     Dm  C  F
When you gonna realize it was just that the time was wrong  Juliet?
Couplet 2:
Come up on different streets, they both the streets of shame
Both dirty both mean, yes and even and dream was just the same
And I dreamed your dream for you and now your dream is real.
How can you look at me as if I was just another part of your deal
Well you can fall for chains of silver, you can fall for chains of gold.
you can fall for pretty strangers and the promises they hold
You promised me everything, you promised me thick and thin yeah
Now you just say oh Romeo yeah, I used to have a scene with him.
Refrain 2:
Juliet when we made love you used to cry
you said I love you like the stars above I'll love you till I die
There's a place for us, you know the movie song
When you gonna realize it was just that the time was wrong Juliet?
Couplet 3:
I can't do the talk, like they talk on the tv
I can't do a love song, like the way it's meant to be.
I can't do anything, but I'd do anything for you.
I cant't do anything but be in love with you.
And all I do is miss you and the way we used to be
All I do is keep the beat and bad company.
All I do is kiss you through the bars of a rhyme
Juliet I'd do the stars with you anytime.
Rejouer refrain 2:
Couplet 4:
A love struck Romeo, sings the streets a serenade.
Now he's laying everymody low, with a love song that he made.
Finds a convenient street light, steps out of the shade
Says something like you and me babe how about it
outro:
Bb C

Leave a Reply

Ce site utilise Akismet pour réduire les indésirables. En savoir plus sur comment les données de vos commentaires sont utilisées.