Marilyn Manson

Marilyn Manson – Sweet dreams

Vidéo guitare et chant, tablature gratuite, accords, paroles de la chanson «Sweet dreams» de Marylin Manson.

Tablature :
E||--------------------------|--------------------------|
B||--------------------------|--------------------------|
G||--------------------------|--------------------------|
D||--------5-----6-----5-----|--------------------------|
A||--3--3-----3-----3-----3--|--------5/-6--------5/-7--|
E||--------------------------|--3--3--------2--2--------|
--------------------------|--------------------------|
--------------------------|--------------------------|
--------------------------|--------------------------|
--------5-----6-----5-----|--------------------------|
--3--3-----3-----3-----3--|--------5/-6--------5/-7--|
--------------------------|--3--3--------2--2--------|
--------------------------|--------------------------|
--------------------------|--------------------------|
--------------------------|--------------------------|
--------5-----6-----5-----|--------------------------|
--3--3-----3-----3-----3--|--------5/-6--------5/-7--|
--------------------------|--3--3--------2--2--------|
--------------------------|--------------------------|
--------------------------|--------------------------|
--------------------------|--------------------------|
--------5-----6-----5-----|--------------------------|
--3--3-----3-----3-----3--|--------5/-6--------5/-7--|
--------------------------|--3--3--------2--2--------|
--------------------------|--------------------------|
--------------------------|--------------------------|
--------------------------|--------------------------|
--------5-----6-----5-----|--------------------------|
--3--3-----3-----3-----3--|--------5/-6--------5/-7--|
--------------------------|--3--3--------2--2--------|
--------------------------|--------------------------|
--------------------------|--------------------------|
--------------------------|--------------------------|
--------5-----6-----5-----|--------------------------|
--3--3-----3-----3-----3--|--------5/-6--------5/-7--|
--------------------------|--3--3--------2--2--------|
--------------------------|--------------------------|
--------------------------|--------------------------|
--------------------------|--------------------------|
--------5-----6-----5-----|--------------------------|
--3--3-----3-----3-----3--|--------5/-6--------5/-7--|
--------------------------|--3--3--------2--2--------|
--------------------------|-------------------|-------------------|
--------------------------|-------------------|-------------------|
--------------------------|-------------------|-------------------|
--------5-----6-----5-----|-------------------|--5----------------|
--3--3-----3-----3-----3--|------3------------|--3----------------|
--------------------------|-------------------|-------------------|
--------------------|-------------------|--------------------|
--------------------|-------------------|--------------------|
--------------------|-------------------|--------------------|
--------------------|--5----------------|--------------------|
--6--------5--------|--3----------------|--6--------5--------|
--4--------3--------|-------------------|--4--------3--------|
--------------------------|--------------------------|
--------------------------|--------------------------|
--------------------------|--------------------------|
--6--6--6--6--6--6--6--6--|--6--6--6--6--6--5--5--5--|
--6--6--6--6--6--6--6--6--|--6--6--6--6--6--5--5--3--|
--4--4--4--4--4--4--4--4--|--4--4--4--4--4--3--3-----|
--------------------------|--------------------------|
--------------------------|--------------------------|
--------------------------|--------------------------|
--5--5--5--5--5--5--5--5--|--6--6--6--6--6--6--6--5--|
--3--3--3--3--3--3--3--3--|--6--6--6--6--6--6--6--5--|
--------------------------|--4--4--4--4--4--4--4--3--|
--------------------------|--------------------------|
--------------------------|--------------------------|
--------------------------|--------------------------|
--6--6--6--6--6--6--6--6--|--5--5--5--5--5--5--5--5--|
--6--6--6--6--6--6--6--6--|--5--5--5--5--5--5--5--5--|
--4--4--4--4--4--4--4--4--|--3--3--3--3--3--3--3--3--|
--------------------------|--------------------------|
--------------------------|--------------------------|
--------------------------|--------------------------|
--------5-----6-----5-----|--------------------------|
--3--3-----3-----3-----3--|--------5/-7--------5/-6--|
--------------------------|--3--3--------2--2--------|
--------------------------|--------------------------|
--------------------------|--------------------------|
--------------------------|--------------------------|
--------5-----6-----5-----|--------------------------|
--3--3-----3-----3-----3--|--------5/-7--------5/-6--|
--------------------------|--3--3--------2--2--------|
--------------------------|--------------------------|
--------------------------|--------------------------|
--------------------------|--------------------------|
--------5-----6-----5-----|--------------------------|
--3--3-----3-----3-----3--|--------5/-7--------5/-6--|
--------------------------|--3--3--------2--2--------|
--------------------------|--------------------------|
--------------------------|--------------------------|
--------------------------|--------------------------|
--------5-----6-----5-----|--------------------------|
--3--3-----3-----3-----3--|--------5--7--------5--6--|
--------------------------|--3--3--------2--2--------|
--------------------------|--------------------------|
--------------------------|--------------------------|
--------------------------|--------------------------|
--------5-----6-----5-----|--------------------------|
--3--3-----3-----3-----3--|--------5/-6--------5/-7--|
--------------------------|--3--3--------2--2--------|
--------------------------|--------------------------|
--------------------------|--------------------------|
--------------------------|--------------------------|
--------5-----6-----5-----|--------------------------|
--3--3-----3-----3-----3--|--------5/-6--------5/-7--|
--------------------------|--3--3--------2--2--------|
--------------------------|--------------------------|
--------------------------|--------------------------|
--------------------------|--------------------------|
--------5-----6-----5-----|--------------------------|
--3--3-----3-----3-----3--|--------5/-6--------5/-7--|
--------------------------|--3--3--------2--2--------|
--------------------------|--------------------------|-------------------|
--------------------------|--------------------------|-------------------|
--------------------------|--------------------------|-------------------|
--------5-----6-----5-----|--------------------------|-------5-----------|
--3--3-----3-----3-----3--|--------5/-6--------5/-7--|--3----------------|
--------------------------|--3--3--------2--2--------|-------------------|
--------------------|-------------------|--------------------|
--------------------|-------------------|--------------------|
--------------------|-------------------|--------------------|
--6--------5--------|--5----------------|--6--------5--------|
--6--------5--------|--3----------------|--6--------5--------|
--4--------3--------|-------------------|--4--------3--------|
-------------------|--------------------|-------------------|
-------------------|--------------------|-------------------|
-------------------|--------------------|-------------------|
--5----------------|--6--------5--------|--5----------------|
--3----------------|--6--------5--------|--3----------------|
-------------------|--4--------3--------|-------------------|
--------------------|--------------------------|--------------------------|
--------------------|--------------------------|--------------------------|
--------------------|--------------------------|--------------------------|
--6--------5--------|--6--6--6--6--6--6--6--6--|--6--6--6--6--6--5--5--5--|
--6--------5--------|--6--6--6--6--6--6--6--6--|--6--6--6--6--6--5--5--3--|
--4--------3--------|--4--4--4--4--4--4--4--4--|--4--4--4--4--4--3--3-----|
--------------------------|--------------------------|
--------------------------|--------------------------|
--------------------------|--------------------------|
--5--5--5--5--5--5--5--5--|--6--6--6--6--6--6--6--5--|
--3--3--3--3--3--3--3--3--|--6--6--6--6--6--6--6--5--|
--------------------------|--4--4--4--4--4--4--4--3--|
--------------------------|--------------------------|-------------------|
--------------------------|--------------------------|-------------------|
--------------------------|--------------------------|-------------------|
--6--6--6--6--6--6--6--6--|--5--5--5--5--5--5--5--5--|--5----------------|
--6--6--6--6--6--6--6--6--|--5--5--5--5--5--5--5--5--|--3----------------|
--4--4--4--4--4--4--4--4--|--3--3--3--3--3--3--3--3--|-------------------|
-------------------|-------------------|-------------------|-------------------|
-------------------|-------------------|-------------------|-------------------|
-------------------|-------------------|-------------------|-------------------|
--6----------------|--5----------------|--6----------------|--5----------------|
--6----------------|--3----------------|--6----------------|--3----------------|
--4----------------|-------------------|--4----------------|-------------------|
-------------------|-------------------|---------------------|
-------------------|-------------------|---------------------|
-------------------|-------------------|---------------------|
--6----------------|--5----------------|--6--6--6------------|
--6----------------|--3----------------|--6--6--6------------|
--4----------------|-------------------|--4--4--4------------|
----------------11--------|------------------------|------------------------|
--11------13----------11--|--13-----11-------------|------------------------|
--------------------------|--------------11b-------|------------------------|
--------------------------|------------------------|--10----8----10---------|
--------------------------|------------------------|-----------------9b-----|
--------------------------|------------------------|------------------------|
------------------------|------------------------|---------------------11--|
------------------------|------------------------|----------11--8----------|
------------------------|------------------------|--10---------------------|
------------------------|--10--------12----12----|-------------------------|
-----------------8r-----|------------------------|-------------------------|
--8----11----11---------|------------------------|-------------------------|
--13r---------------|--------------------|------------------|------------------|
--------------------|--13----------------|------------------|------------------|
--------------------|--------------------|------------------|------------------|
--------------------|--------------------|------------------|------------------|
--------------------|--------------------|------------------|------------------|
--------------------|--------------------|------------------|------------------|
------------------|------------------|------------------|------------------|
------------------|------------------|------------------|------------------|
------------------|------------------|------------------|------------------|
------------------|------------------|------------------|------------------|
------------------|------------------|------------------|------------------|
------------------|------------------|------------------|------------------|
------------------|------------------|-------------------|--------------------|
------------------|------------------|-------------------|--------------------|
------------------|------------------|-------------------|--------------------|
------------------|------------------|--5----------------|--6--------5--------|
------------------|------------------|--3----------------|--6--------5--------|
------------------|------------------|-------------------|--4--------3--------|
-------------------|--------------------|-------------------|
-------------------|--------------------|-------------------|
-------------------|--------------------|-------------------|
--5----------------|--6--------5--------|--5----------------|
--3----------------|--6--------5--------|--3----------------|
-------------------|--4--------3--------|-------------------|
--------------------|-------------------|--------------------|
--------------------|-------------------|--------------------|
--------------------|-------------------|--------------------|
--6--------5--------|--5----------------|--6--------5--------|
--6--------5--------|--3---------------|--6--------5--------|
--4--------3--------|-------------------|--4--------3--------|
--------------------------|--------------------------|
--------------------------|--------------------------|
--------------------------|--------------------------|
--6--6--6--6--6--6--6--6--|--6--6--6--6--6--5--5--5--|
--6--6--6--6--6--6--6--6--|--6--6--6--6--6--5--5--5--|
--4--4--4--4--4--4--4--4--|--4--4--4--4--4--3--3--3--|
--------------------------|--------------------------|
--------------------------|--------------------------|
--------------------------|--------------------------|
--5--5--5--5--5--5--5--5--|--6--6--6--6--6--6--6--5--|
--3--3--3--3--3--3--3--3--|--6--6--6--6--6--6--6--5--|
--------------------------------|--4--4--4--4--4--4--4--3--|
--------------------------|--------------------------|
--------------------------|--------------------------|
--------------------------|--------------------------|
--6--6--6--6--6--6--6--6--|--5--5--5--5--5--5--5--5--|
--6--6--6--6--6--6--6--6--|--5--5--5--5--5--5--5--5--|
--4--4--4--4--4--4--4--4--|--3--3--3--3--3--3--3--3--|
--------------------------|--------------------------|
--------------------------|--------------------------|
--------------------------|--------------------------|
--6--6--6--6--6--6--6--6--|--5--5--5--5--5--5--5--5--|
--6--6--6--6--6--6--6--6--|--5--5--5--5--5--5--5--5--|
--4--4--4--4--4--4--4--4--|--3--3--3--3--3--3--3--3--|
--------------------------|--------------------|-------------------|
--------------------------|--------------------|-------------------|
--------------------------|--------------------|-------------------|
--5--5--5--5--5--5--5--5--|--6--------5--------|--5----------------|
--3--3--3--3--3--3--3--3--|--6--------5--------|--3----------------|
--------------------------|--4--------3--------|-------------------|
------------------|------------------||
------------------|------------------||
------------------|------------------||
------------------|------------------||
------------------|------------------||
------------------|------------------||
overdub
E||------|------|------|------|------|------|------|------|------|------|------|
B||------|------|------|------|------|------|------|------|------|------|------|
G||------|------|------|------|------|------|------|------|------|------|------|
D||------|------|------|------|------|------|------|------|------|------|------|
A||------|------|------|------|------|------|------|------|------|------|------|
E||------|------|------|------|------|------|------|------|------|------|------|
------|------|------|------|--------------------------|
------|------|------|------|--------------------------|
------|------|------|------|--------------------------|
------|------|------|------|--------------------------|
------|------|------|------|--------5/-6--------5/-7--|
------|------|------|------|--3--3--------2--2--------|
--------------------------|--------------------------|
--------------------------|--------------------------|
--------------------------|--------------------------|
--------5-----6-----5-----|--------------------------|
--3--3-----3-----3-----3--|--------5/-6--------5/-7--|
--------------------------|--3--3--------2--2--------|
--------------------------|--------------------------|------------------|
--------------------------|--------------------------|------------------|
--------------------------|--------------------------|------------------|
--------5-----6-----5-----|--------------------------|------------------|
--3--3-----3-----3-----3--|--------5/-6--------5/-7--|------------------|
--------------------------|--3--3--------2--2--------|------------------|
------------------|------------------|------------------|------------------|
------------------|------------------|------------------|------------------|
------------------|------------------|------------------|------------------|
------------------|------------------|------------------|------------------|
------------------|------------------|------------------|------------------|
------------------|------------------|------------------|------------------|
------------------|------------------|------------------|------------------|
------------------|------------------|------------------|------------------|
------------------|------------------|------------------|------------------|
------------------|------------------|------------------|------------------|
------------------|------------------|------------------|------------------|
------------------|------------------|------------------|------------------|
------------------|------------------|------------------|------------------|
------------------|------------------|------------------|------------------|
------------------|------------------|------------------|------------------|
------------------|------------------|------------------|------------------|
------------------|------------------|------------------|------------------|
------------------|------------------|------------------|------------------|
------------------|------------------|------------------|------------------|
------------------|------------------|------------------|------------------|
------------------|------------------|------------------|------------------|
------------------|------------------|------------------|------------------|
------------------|------------------|------------------|------------------|
------------------|------------------|------------------|------------------|
------------------|------------------|------------------|------------------|
------------------|------------------|------------------|------------------|
------------------|------------------|------------------|------------------|
------------------|------------------|------------------|------------------|
------------------|------------------|------------------|------------------|
------------------|------------------|------------------|------------------|
------------------|--------------------------|--------------------------|
------------------|--------------------------|--------------------------|
------------------|--------------------------|--------------------------|
------------------|--------5-----6-----5-----|--------------------------|
------------------|--3--3-----3-----3-----3--|--------5/-6--------5/-7--|
------------------|--------------------------|--3--3--------2--2--------|
--------------------------|--------------------------|
--------------------------|--------------------------|
--------------------------|--------------------------|
--------5-----6-----5-----|--------------------------|
--3--3-----3-----3-----3--|--------5/-6--------5/-7--|
--------------------------|--3--3--------2--2--------|
--------------------------|--------------------------|
--------------------------|--------------------------|
--------------------------|--------------------------|
--------5-----6-----5-----|--------------------------|
--3--3-----3-----3-----3--|--------5/-6--------5/-7--|
--------------------------|--3--3--------2--2--------|
--------------------------|--------------------------|----------------------|
--------------------------|--------------------------|----------------------|
--------------------------|--------------------------|--5--3----5----7b-----|
--------5-----6-----5-----|--------------------------|----------------------|
--3--3-----3-----3-----3--|--------5/-6--------5/-7--|----------------------|
--------------------------|--3--3--------2--2--------|----------------------|
----------------------|----------------------|----------------------|
----------------------|----------------------|---------------6b-----|
--5--3----5----7b-----|--5--3----5----7b-----|--5--3----5-----------|
----------------------|----------------------|----------------------|
----------------------|----------------------|----------------------|
----------------------|----------------------|----------------------|
----------------------|----------------------|------------------|
----------------------|----------------------|------------------|
--5--3----5----7b-----|--5--3----5----7b-----|------------------|
----------------------|----------------------|------------------|
----------------------|----------------------|------------------|
----------------------|----------------------|------------------|
------------------|------------------|------------------|------------------|
------------------|------------------|------------------|------------------|
------------------|------------------|------------------|------------------|
------------------|------------------|------------------|------------------|
------------------|------------------|------------------|------------------|
------------------|------------------|------------------|------------------|
------------------|------------------|------------------|
------------------|------------------|------------------|
------------------|------------------|------------------|
------------------|------------------|------------------|
------------------|------------------|------------------|
------------------|------------------|------------------|
--------------------------|--------------------------|
--------------------------|--------------------------|
--------------------------|--------------------------|
--------5-----6-----5-----|--------------------------|
--3--3-----3-----3-----3--|--------5/-6--------5/-7--|
--------------------------|--3--3--------2--2--------|
--------------------------|--------------------------|
--------------------------|--------------------------|
--------------------------|--------------------------|
--------5-----6-----5-----|--------------------------|
--3--3-----3-----3-----3--|--------5/-6--------5/-7--|
--------------------------|--3--3--------2--2--------|
--------------------------|--------------------------|
--------------------------|--------------------------|
--------------------------|--------------------------|
--------5-----6-----5-----|--------------------------|
--3--3-----3-----3-----3--|--------5/-6--------5/-7--|
--------------------------|--3--3--------2--2--------|
--------------------------|--------------------------|------------------|
--------------------------|--------------------------|------------------|
--------------------------|--------------------------|------------------|
--------5-----6-----5-----|--------------------------|------------------|
--3--3-----3-----3-----3--|--------5/-6--------5/-7--|------------------|
--------------------------|--3--3--------2--2--------|------------------|
------------------|------------------|------------------|------------------|
------------------|------------------|------------------|------------------|
------------------|------------------|------------------|------------------|
------------------|------------------|------------------|------------------|
------------------|------------------|------------------|------------------|
------------------|------------------|------------------|------------------|
------------------|------------------|------------------|
------------------|------------------|------------------|
------------------|------------------|------------------|
------------------|------------------|------------------|
------------------|------------------|------------------|
------------------|------------------|------------------|
--------------------------|--------------------------|
--------------------------|--------------------------|
--------------------------|--------------------------|
--------5-----6-----5-----|--------------------------|
--3--3-----3-----3-----3--|--------5/-6--------5/-7--|
--------------------------|--3--3--------2--2--------|
--------------------------|--------------------------|
--------------------------|--------------------------|
--------------------------|--------------------------|
--------5-----6-----5-----|--------------------------|
--3--3-----3-----3-----3--|--------5/-6--------5/-7--|
--------------------------|--3--3--------2--2--------|
--------------------------|--------------------------|
--------------------------|--------------------------|
--------------------------|--------------------------|
--------5-----6-----5-----|--------------------------|
--3--3-----3-----3-----3--|--------5/-6--------5/-7--|
--------------------------|--3--3--------2--2--------|
--------------------------|--------------------------|----------------------|
--------------------------|--------------------------|----------------------|
--------------------------|--------------------------|--5--3----5----7b-----|
--------5-----6-----5-----|--------------------------|----------------------|
--3--3-----3-----3-----3--|--------5/-6--------5/-7--|----------------------|
--------------------------|--3--3--------2--2--------|----------------------|
----------------------|----------------------|---------------------|
---------------6b-----|----------------------|---------------------|
--5--3----5-----------|--5----3----5--7b-----|--5----3----5--------|
----------------------|----------------------|---------------------|
----------------------|----------------------|---------------------|
----------------------|----------------------|---------------------|
--8----6----8--10b-----|--8----6----8---------|--8----6----8--10b-----|
-----------------------|---------------6b-----|-----------------------|
-----------------------|----------------------|-----------------------|
-----------------------|----------------------|-----------------------|
-----------------------|----------------------|-----------------------|
-----------------------|----------------------|-----------------------|
--8--6----8----10b-----|--13----------------|------------------|
-----------------------|--------------------|------------------|
-----------------------|--------------------|------------------|
-----------------------|--------------------|------------------|
-----------------------|--------------------|------------------|
-----------------------|--------------------|------------------|
-------------------|------------------|------------------||
-------------------|------------------|------------------||
--7----------------|------------------|------------------||
-------------------|------------------|------------------||
-------------------|------------------|------------------||
-------------------|------------------|------------------||
Paroles :
Sweet dreams are made of these.
Who am I to disagree?
Travel the world and the seven seas.
Everybody's looking for something.
(Chorus: Some of them want to use you.
Some of them want to get used by you.
Some of them want to abuse you.
Some of them want to be abused.)
(Repeat First Verse)
(Chorus)
I wanna use you and abuse you.
I wanna know what's inside you.
(Whispering and Moaning: Hold your head up, movin' on.
Keep your head up, movin' on.)
(Repeat Three Times)
Movin' on!
(Repeat First Verse)
(Chorus)
I'm gonna use you and abuse you.
I'm gonna know what's inside.
Gonna use you and abuse you.
I'm gonna know what's inside you.

4 Comments

Leave a Reply

Ce site utilise Akismet pour réduire les indésirables. En savoir plus sur comment les données de vos commentaires sont utilisées.