Pixies

The Pixies – Where is my mind

Vidéo guitare et chant, tablature gratuite, accords, paroles de la chanson «Where is my mind» des Pixies.

Tablature : accords, paroles

[INTRO]
 
  E  C#m  G#  A (4x)
     
  lead
E|-----4-----4-|----4-----4-|-----4-----4-|-0--0----0--
B|--5-----5----|-5-----5----|--4-----4----|-5--5p4--5--
G|-------------|------------|-------------|------------
D|-------------|------------|-------------|------------
A|-------------|------------|-------------|------------
E|-------------|------------|-------------|------------


[VERSE 1]
           E                        C#m               G#  A
 With your feet in the air and your head on the ground
E    C#m            G#       A         
 Try this trick and spin it, yeah
E                  C#m
 Your head will collapse
            G#
But there's nothing in it 
           A
And you'll ask yourself


[CHORUS]
E            C#m 
 Where is my mind?
G#           A
 Where is my mind?  
     E       C#m   G#  A       
 Where is my mind?

E  C#m  G#  A 

 E   G#         A             Am        C#m   B
 Way out in the water, see it swimming.

[VERSE 2] - (E  C#m  G#  A) 
I was swimmin' in the Carribean
Animals were hiding behind the rock
Except the little fish
But they told me, he swears
Tryin' to talk to me, to me, to me

-CHORUS-


E|-------------------------------|-------------------------10--12--14^-
B|--7---7---7--7-----------------|--------7--7--10--12--------------
G|--9^--9^--------9--7--7--7-----|--7--9-------------------bend last---
D|----------------------------9--|------------------------ note a few--
A|-------------------------------|-------------------------times-------
E|-------------------------------|-------------------------------------

Leave a Reply

Ce site utilise Akismet pour réduire les indésirables. En savoir plus sur comment les données de vos commentaires sont utilisées.