Laurent Voulzy

Laurent Voulzy – Le rêve du pêcheur

Tablature gratuite de la chanson “Le rêve du pêcheur” de Laurent Voulzy.

Tablature, accords, paroles:

Arpèges :
                    G(sus4)                           G(sus4) 
e-------------------------------------------------------------
B-------------0h3--1po0--1---0---1---0---1-----1po0---1po0--1-
G---------0h2------0-----0---0---0---0---0-----0------0-----0-
D-------0----------0-----0---0---0---0---0---0--------0-----0-
A-------------------------------------------------------------
E-0h2-3------------3-------3-------3-------3----------3-------
                            C/E                                  
e --------------------------------------------------------------
B --0---1---0---1-----1po0---1po0--1---0---1---0-----1-----1po0-
G --0---0---0---0-----0------0-----0---0---0---0-----0-----0----
D --0---0---0---0---0--------2-----2---2---2---2-----2---2------
A --------------------------------------------------------------
E 3-------3-------3----------0-------0-------0---------0--------
    D7/F# 
e --------------------------------------
B ----1po0--1---0---1---0---1-----1po0--
G ----2-----2---2---2---2---2-----2-----
D ----0-----0---0---0---0---0---0-------
A --------------------------------------
E ----2-------2-------2-------2---------

Intro :  G(sus4)   G(sus4)   C/E   D7/F# 
         G(sus4)   G(sus4)   C/E   D7/F# 
         G(sus4)   G(sus4) 

C/E 
J'ai un rêve
D7/F# 
   Le rêve que j'ai
G(sus4) 
Tout l' monde le fait
C/E 
Je rêve d'eau
D7/F# 
   Mais d'océan
C(add9)/E    C/E 
Ah ! l'océan
D7/F#                     C/E 
   Au sud et vivre de pêche
F              C             G(sus4)      G(sus4) 
Mais les rêves on les empêche

Jeter dans l'eau
Jeter des filets
Jeter des filets dans l'eau
Un bateau
Être heureux dessus
Être sur un bateau
Je rêve d'eau
Mais d'océan
Ah! l'océan
D7/F#                     G(sus4) (Riff 1)
Pêcher des poissons dedans

Riff 1
e --------3-----------3--
B --0--1--1-----0--1--1--
G --0--0--0-----0--0--0--
D --0--0--------0--0-----
A -----------------------
E --3-----3--------3-----

 Refrain : (v = bas , ^ = haut )
     Em7   D/F#     G   A4       G/B  C(add9)   D/F#   G 
     v v^v^ ^ ^v^v v^v v^v^ ^ ^v^v v^v v^v^ ^ ^v^v v^v v^v^ ^ ^v^v v^
e -------------------------------------------------------------------
B ---3------3--------3------3--------3------3--------3------3--------
G ---0------2--------0------2--------0------0--------2------0--------
D ---2------0--------0------2--------0------2--------0------0--------
A ---2------0--------2------0--------2------3--------0------2--------
E ---0------2--------3-------------------------------2------3--------
     Em7   D/F#     G   C(add9)   Em7  D/F#  G       D   D/F#  G 
     v v^v^ ^ ^v^v v^v v^v^ ^ ^v^v v^v v v   ^v^v    v v v
e ----------------------------------------------------------------------
B ---3------3--------3------3--------3-3-3-----------3-3-3--------------
G ---0------2--------0------0--------0-2-0-----------2-2-0--------------
D ---2------0--------0------2--------2-0-0-----------0-0-0--------------
A ---2------0--------2------3--------2-0-2-------------0-2--------------
E ---0------2--------3---------------0-2-3-------------2-3--------------

    Em7   D/F#       G 
Pêcher...er!  pêcher
           Asus4         G/B 
Ici c'est faire des péchés
             C(add9)    D/F#
Avoir le coeur empêché
       G 
Faire mal
  Em7     D/F#       G 
Pêcher...er   là-bas
             C(add9) 
Ce n'est que pêcher
        Em7      D/F#        G 
Le vent les poissons moqueurs
D       D/F#   G 
Donnent  bon   coeur
            C/E 
Poupoupou poupoupoupou
          D7/F# 
Poupoupou poupoupoupou
       G(sus4) 
Pêcheur
 Poupoupou poupoupoupou
Poupoupou poupoupoupou
Pêcheur

Sous la lune
Et les étoiles
Pêcher en bateau à voiles
Rentrer le matin
Soleil levant
Ah ! oui le vent
D/F#                     G(sus4) (Riff 1)
Pêcher des baisers dedans

(Refrain)

Pont :
    Em        Bm7           Em        Bm7          Em        Bm7 
e --0--0----0--2--2--2----2---0--0----0--2--2--2----2--0--0----0--2--2--2----2----
B --0--0----0--3--3--3----3---0--0----0--3--3--3----3--0--0----0--3--3--3----3----
G --0--0----0--2--2--2----2---0--0----0--2--2--2----2--0--0----0--2--2--2----2----
D --------------------------------------------------------------------------------
A -------------2-------2-----------------2-------2----------------2-------2-------
E --0-----0-------------------0-----0------------------0-----0--------------------
     C 
e --0--0----0--0---0--0----2--
B --1--1----1--1---1--1----3--
G --0--0----0--0---0--0----2--
D ----------------------0-----
A --3-----3------3------------
E ----------------------------

Em        Bm7                Em 
  Rêver d'être meilleur aussi
       Bm7      Em 
Oh ! meilleur !
          Bm7              C   D 
Dans la vie qui se dépêche
Em        Bm7               Em 
Rêver d'être ailleurs qu'ici
        Bm7     Em 
Être ailleurs !
        Bm7          C 
Vivre simplement de pêche
F            C               G(sus4)    G(sus4) 
Mais les rêves on les empêche

De l'eau fraîche
Vivre d'amour
Vivre d'amour et d'eau fraîche
Je rêve d'eau
Mais d'océan
Ah ! l'océan
D7/F#                 G(sus4)  (Riff 1)
Vivre la vie autrement

(Refrain)

Poupoupou poupoupoupou
Poupoupou poupoupoupou
Pêcheur
Poupoupou poupoupoupou
Poupoupou poupoupoupou
Pêcheur

One Comment

  • EMMA DENON dit :

    Super la partition. Pour les allergiques aux portées de notes, c’est géniale. Il me manque les violons et c’est tout bon !

    MERCI pour la transcription. Qui l’a fait ?

Leave a Reply

Ce site utilise Akismet pour réduire les indésirables. En savoir plus sur comment les données de vos commentaires sont utilisées.