Lilly Wood and The Prick

Lilly Wood and The Prick – This is a love song

Tablature gratuite de la chanson “This is a love song” de Lilly Wood and The Prick.

Tablature, accords, paroles:

C: 032010
E+:032110
F: 133211
F6:x3323X
G6: 320000 ou X5545X
G:  320010 ou 355433



   C               E+              F               G6      G
   I....           spent my life   thinking about  you and I         

|--------------------------------------------------0---0------------|   (X3)
|--1-X-1-X-1-X-1-X-1-X-1-X-1-X-1-X-1-X-1-X-1-X-1-X-0-X-0-X-3-X-3-X--|
|--0-X-0-X-0-X-0-X-1-X-1-X-1-X-1-X-2-X-2-X-2-X-2-X-0-X-0-X-0-X-0-X--|
|--2-X-2-X-2-X-2-X-2-X-2-X-2-X-2-X-3-X-3-X-3-X-3-X-0-X-0-X-0-X-0-X--|
|--3---3---3---3---3---3---3---3---3---3---3---3-----------2-X-2-X--|
|-------------------------------------------------------------------|
   ^ v ^ v ^ v ^ v ^ v ^ v ^ v ^ v ^ v ^ v ^ v ^ v ^ v ^ v ^ v ^ v



    C	   E+		   F
and I, I want to spend my time 
G6      G
in your eyes
     C           E+
but time has no meaning
           F
if you're not around
G6          G
'Cause all I have


    C              E+              F6              G6
to give  is  for   you to take and keep            close

|--------------------------------------------------0---|
|--1-X-1-X-1-X-1-X-1-X-1-X-1-X-1-X-3-X-3-X-3-X-3-X-0---|
|--0-X-0-X-0-X-0-X-1-X-1-X-1-X-1-X-2-X-2-X-2-X-2-X-0---|
|--2-X-2-X-2-X-2-X-2-X-2-X-2-X-2-X-3-X-3-X-3-X-3-X-0---|
|--3---3---3---3---3---3---3---3---3---3---3---3-------|
|------------------------------------------------------|
   ^ v ^ v ^ v ^ v ^ v ^ v ^ v ^ v ^ v ^ v ^ v ^ v ^ 




REFRAIN
          C             E+
This Is a Love Song, a love song
             F                       G
This Is your Love Song, this is your love song
          C             E+
This Is a Love Song, a love song
             F                     G6   G
This Is your Love Song, this is a love song



C        E+ 	   F          G6   G   
I'm     trying to call with my images 
    C        E+
of you in heart
         F6            G                    
like in each other behind my back


REFRAIN (idem que le 1ier)

          C             E+
This Is a Love Song, a love song
             F                       G
This Is your Love Song, this is your love song
          C             E+
This Is a Love Song, a love song
             F                     G6   G
This Is your Love Song, this is a love song


PONT

   C            E                  F            G6

|-----12--------------------12-12----------1--------|
|--------13-----------12----12-12------1-----1---5--|
|--------12-12-----------13--------------2---2---4--|
|-----------14-----14----------------3-------3---5--|
|--15-----------14-----------------3-------------5--|
|--12-----------12-----------------1----------------|


REFRAIN FINAL:
	      C               E+ 	          F               G6   G
this is your love song, your love song baby your love song, your love song
	      C               E+ 	          F6                      G6
this is your love song, your love song baby your love song, this is your love song
              C               E+ 	          F                      G6   G
this is your love song, your love song baby your love song, this is your love song
              C               E+ 	            F6                       G
this is your love song, your love song this is your love song, this is your love 
song



Final
C E+ F6 G6 G C

Leave a Reply

Ce site utilise Akismet pour réduire les indésirables. En savoir plus sur comment les données de vos commentaires sont utilisées.