Izia

Izia – Let me alone

Vidéo guitare et chant, tablature gratuite, accords, paroles de la chanson “Let me alone” de Izia.

Tablature, accords, paroles

Intro + Couplets (x6)
E]------------------------------
B]------------------------------
G]-6-6---6-6-6---0-0-0---0-0-0--
D]-7-7---7-7-7---6-6-6---6-6-6--
A]-0-0---0-0-0---7-7-7---7-7-7--
E]------------------------------

E]------------------------------
B]------------------------------
G]-6-6-6---6-6-6---7-7-7---7-7-7
D]-7-7-7---7-7-7---7-7-7---7-7-7
A]-0-0-0---0-0-0---4-4-4---4-4-4
E]------------------------------

...you're on the loose (x2)
E]------------------------------
B]------------------------------
G]-4-4---4-4-4---4-4-4---4-4-4--
D]-4-4---4-4-4---4-4-4---4-4-4--
A]-2-2---2-2-2---2-2-2---2-2-2--
E]------------------------------

E]------------------------------
B]------------------------------
G]-7-7---7-7-7---7-7-7---7-7-7--
D]-7-7---7-7-7---7-7-7---7-7-7--
A]-5-5---5-5-5---5-5-5---5-5-5--
E]------------------------------

...let me alone (x5)
E]------------------------------
B]------------------------------
G]-6-6---6-6-6---0-0-0---0-0-0--
D]-7-7---7-7-7---6-6-6---6-6-6--
A]-0-0---0-0-0---7-7-7---7-7-7--
E]------------------------------

E]------------------------------
B]------------------------------
G]-6-6-6---6-6-6---7-7-7---7-7-7
D]-7-7-7---7-7-7---7-7-7---7-7-7
A]-0-0-0---0-0-0---4-4-4---4-4-4
E]------------------------------

...you're on the loose (x2)
E]------------------------------
B]------------------------------
G]-4-4---4-4-4---4-4-4---4-4-4--
D]-4-4---4-4-4---4-4-4---4-4-4--
A]-2-2---2-2-2---2-2-2---2-2-2--
E]------------------------------

E]------------------------------
B]------------------------------
G]-7-7---7-7-7---7-7-7---7-7-7--
D]-7-7---7-7-7---7-7-7---7-7-7--
A]-5-5---5-5-5---5-5-5---5-5-5--
E]------------------------------

...let me alone (x4)
E]------------------------------
B]------------------------------
G]-6-x-6-x--6-x--9-x------------
D]-7-x-7-x--6-x--9-x------------
A]-7-x-7-x--4-x--7-x------------
E]-5-x-5-x--4-x--7-x------------

If I say... (x2)
E]------------------------------
B]------------------------------
G]-2-x-2-x--8-x-8-x-------------
D]-4-x-4-x--9-x-9-x-------------
A]-4-x-4-x--9-x-9-x-------------
E]-2-x-2-x--7-x-7-x-------------

Come back my love forever
E]------------------------------
B]------------------------------
G]-2-x-2-x--7-x-7-x-------------
D]-4-x-4-x--7-x-7-x-------------
A]-4-x-4-x--5-x-5-x-------------
E]-2-x-2-x--5-x-5-x-------------

Don't wanna be alone
E]------------------------------
B]-2-x-2--4-x-4-x--7-x-7-x-7-x-7
G]-2-x-2--4-x-4-x--7-x-7-x-7-x-7
D]-2-x-2--4-x-4-x--7-x-7-x-7-x-7
A]-2-x-2--4-x-4-x--7-x-7-x-7-x-7
E]------------------------------

Paroles :

Turn off the light I'm not afraid
Let me alone, I'll be okay
Don't even smile, just go away
Cause in my head it's anarchy
Let me alone get out of there
I'm sure I can control myself
Goodbye my friend I don't need you
Goodbye my friend you're on the loose
Oh Let Me Alone
Let Me Alone

Turn out the light I'm not afraid
Let me alone I'll be okay
Open the door and run away
I'll be angry if you wanna stay
Let me alone get out of there

Now drop me off you're not my dad
Goodbye my friend I don't need you
Goodbye my friend you're on the loose
Oh let me alone
Let me alone

Turn off the light I'm not afraid
But it's for sure i'm not okay
Come back my friend, come back to me
I need your help cause you're pretty
If I say all the stupid things
It's because I need you just next to me
Don't go away please stay around
I was angry I don't wanna be alone

Come back my love forever
Come back my friend
Don't wanna be alone
Don't let me alone
Don't let me alone

One Comment

Leave a Reply

Ce site utilise Akismet pour réduire les indésirables. En savoir plus sur comment les données de vos commentaires sont utilisées.