Sting

Sting – Shape of my heart

Vidéo guitare et chant, tablature gratuite, accords, paroles de la chanson “Shape of my heart” de Sting.

Tablature, accords, paroles

(vidéo : Capo 2)

Accords utilisés:
 	  A       D/F#     Fm     Bm      C#/F
    e|----5----|---2---|---2---|---2---|---1---|
    B|----5----|---3---|---2---|---3---|---2---|
    G|----6----|---2---|---3---|---4---|---1---|
    D|----7----|---4---|---4---|---4---|---3---|
    A|----7----|---5---|---4---|---2---|---4---|
    E|----5----|---2---|---2---|---2---|---1---|


Intro:

  F#m         E          D          D   E 
|-------------------------------------------|
|-10----10----9-----9----7-----7----7---9---|
|-------------------------------------------|
|----11----------9----------7---------------|
|-9-----------7----------5----------5---7---|
|-------------------------------------------|


  F#m         E          D          D   C#
|-------------------------------------------|
|-10----10----9-----9----7-----7----7---6---|
|-------------------------------------------|
|----11----------9----------7---------------|
|-9-----------7----------5----------5---4---|
|-------------------------------------------|



Fm                       Bm
 He deals the cards as a meditation
Fm                           Bm
 And those he plays never suspect
D/F#                    A        C#/F
 He doesnt play for the money he wins
D/F#                       Fm
 He doesnt play for the respect
Fm                               Bm
 He deals the cards to find the answer
Fm                          Bm
 The sacred geometry of chance
D/F#               A        C#/F
 The hidden law of probable outcome
D/F#                 Fm
 The numbers lead a dance

Fm                              Bm
 I know that the spades are the swords of a soldier
Fm                                    Bm
 I know that the clubs are weapons of war
D/F#                       A              C#/F
 I know that diamonds mean money for this art
D/F#                            Fm
 But thats not the shape of my heart

He may play the jack of diamonds
He may lay the queen of spades
He may conceal a king in his hand
While the memory of it fades

I know that the spades are the swords of a soldier
I know that the clubs are weapons of war
I know that diamonds mean money for this art
But thats not the shape of my heart
Thats not the shape, the shape of my heart

And if I told you that I loved you
Youd maybe think theres something wrong
Im not a man of too many faces
The mask I wear is one
Those who speak know nothing
And find out to their cost
Like those who curse their luck in too many places
And those who smile are lost

I know that the spades are the swords of a soldier
I know that the clubs are weapons of war
I know that diamonds mean money for this art
But thats not the shape of my heart
Thats not the shape of my heart

Leave a Reply

Ce site utilise Akismet pour réduire les indésirables. En savoir plus sur comment les données de vos commentaires sont utilisées.