Guns N Roses

Guns N’ Roses – Sweet child O’ Mine

Vidéo guitare et chant, tablature gratuite, accords, paroles de la chanson «Sweet child O’ Mine» des Guns N’ Roses.

Tablature, accords, paroles

intro
--------------15----14-------------------15----14-----
-----15-------------------------15--------------------
--------14-12----14----14----------14-12----14----14--
--12-------------------------12-----------------------
------------------------------------------------------
------------------------------------------------------
--------------15----14-------------------15----14-----
-----15-------------------------15--------------------
--------14-12----------14----------14-12----------14--
--14-------------------------14-----------------------
------------------------------------------------------
------------------------------------------------------
--------------15----14-------------------15----14-----
-----15-------------------------15--------------------
--12----14-12----14----14----12----14-12----14----14--
------------------------------------------------------
------------------------------------------------------
------------------------------------------------------
--------------15----14-------------------15----14-----
-----15-------------------------15--------------------
--------14-12----14----14----------14-12----14----14--repeat 3 times
--12-------------------------12-----------------------
------------------------------------------------------
------------------------------------------------------
D
she's got a smile that it seems to me
C
reminds me of child hood memories
G                                                D
where everything was as fresh as the bright blue sky
D
now and then when i see her face
C
it takes me away to that specail place
G                                                   D
and if i stared to long i'd probably break down and cry
Chorus
A                          C
-----------------------------------------12----10-----
--14-14-------15----14-------13-13--------------------
--------14-------14----14----------12-10----12----12--
-----------14-----------------------------------------
------------------------------------------------------
------------------------------------------------------
D                          D
--------------15----14-------------------15---14-----
-----15-------------------------15-------------------
--------14-12----14----14----------14-12---14----14--
--12-------------------------12----------------------
-----------------------------------------------------
-----------------------------------------------------
A                          C
-----------------------------------------12----10-----
--14-14-------15----14-------13-13--------------------
--------14-------14----14----------12-10----12----12--
-----------14-----------------------------------------
------------------------------------------------------
------------------------------------------------------
D
--------------------
--------15----------
--12s14-------------
--------------------
--------------------
--------------------
1ST FILL
-------------------------------------------------------------
---10---8--7-----10--8--7----10---8------10---8-----10--8---
-------------------------------------9------------9----------
-------------------------------------------------------------
-------------------------------------------------------------
-------------------------------------------------------------
------------------10--10fb-(10)---------------
-10fb-(10)8--10fb-----------------------------
--------------------------------9fb-----------
----------------------------------------------
----------------------------------------------
----------------------------------------------
D
she's got eyes of the bluest skies
C
as if they thought of rain
G                                                   D
i hate to look into those eyes and see an ounce of pain
D
her hair reminds me of a warm safe place
C
where as a child i hide
G
and pray for the thunder and the rain
D
to quietly pass me by
Chorus
A                          C
-----------------------------------------12----10-----
--14-14-------15----14-------13-13--------------------
--------14-------14----14----------12-10----12----12--
-----------14-----------------------------------------
------------------------------------------------------
------------------------------------------------------
D                          D
--------------15----14-------------------15---14-----
-----15-------------------------15-------------------
--------14-12----14----14----------14-12---14----14--
--12-------------------------12----------------------
-----------------------------------------------------
-----------------------------------------------------
A                          C
-----------------------------------------12----10-----
--14-14-------15----14-------13-13--------------------
--------14-------14----14----------12-10----12----12--
-----------14-----------------------------------------
------------------------------------------------------
------------------------------------------------------
D
--------------------
--------15----------
--12s14-------------
--------------------
--------------------
--------------------
2ND FILL
-------------------------------------------------------------
---10---8--7-----10--8--7----10---8------10---8-----10--8---
-------------------------------------9------------9----------
-------------------------------------------------------------
-------------------------------------------------------------
-------------------------------------------------------------
--------------------------------10--------------------
-10--8-7hb--(7)----7hb------------(7)-----10----8--7-
------------------7-----------------------------------
------------------------------------------------------
------------------------------------------------------
------------------------------------------------------
------------------------10----10--8-------/12--------
-10---8----7-----/10fb--------------------------------
------------------------------------------------------
------------------------------------------------------
------------------------------------------------------
------------------------------------------------------
--12---12--10---10-(10)-8---7hb--(7)----------------
-----------------------------------------8------------
---------------------------------------------7-~~~~~~~
------------------------------------------------------
------------------------------------------------------
------------------------------------------------------
-----------------------10---10fb--(10)-------------17----(17)-
-10fb--(10)p8---10fb-------------------17fb---(17)-------(17)-
--------------------------------------------------------------
--------------------------------------------------------------
--------------------------------------------------------------
--------------------------------------------------------------
SOLO
-17fb---------15--14--h15p14-----------15--14--h15p14-----------12--14-
-----------------------------17-----------------------17-16------------
-----------------------------------------------------------------------
-----------------------------------------------------------------------
-----------------------------------------------------------------------
-----------------------------------------------------------------------
-----------------------------------------------------------------------
--15fb-12----------------------------------------13-12-------h13p1210-
----------14fb-12--11h12----------------11-12-14-----------------------
-----------------------------14-----14---------------------------------
-----------------------------------------------------------------------
-----------------------------------------------------------------------
---------------------------------------------15fb----------------------
--13fb----13-----12--12-(12)-------12hb--10-----------7hb--------------
------------------------------------------------------------9--9-------
-----------------------------------------------------------------------
-----------------------------------------------------------------------
-----------------------------------------------------------------------
-----------------------------------------------------------------------
-----7hb---------------------------------------------------------------
----------9--9--9�-9--8--8/11---------11hb--9-----------------9--------
-----------------------------------------------11--10--11--------------
-----------------------------------------------------------------------
-----------------------------------------------------------------------
-----------------------------------------------------------------------
---------7h8p7--------------------------------------------7hb---7-10fb-
----------------------9------8hb----8------/11----9fb-8-9-----9--------
-----------------------------------------------------------------------
-----------------------------------------------------------------------
-----------------------------------------------------------------------
W/WAH
-7-8p7-11p7-8-11-12/14-11-12--14/15-12-14-15p14-12----14p11-12h14p12----
---------------------------------------------------15----------------15-
------------------------------------------------------------------------
------------------------------------------------------------------------
------------------------------------------------------------------------
------------------------------------------------------------------------
-17--------------------------------------------------------------------
----15fb--15fb--15fb--15fb--15fbp12-----15fb---15fb-------15fbp12------
------------------------------------14----------------------------14---
-----------------------------------------------------------------------
-----------------------------------------------------------------------
-----------------------------------------------------------------------
----------------------------------15-----------------------------------
--17^---17^--------17^----17^----------17^---------17^-p15--15h17------
-------------------17^-------------------------------------------------
-----------------------------------------------------------------------
-----------------------------------------------------------------------
-----------------------------------------------------------------------
-----------12----------------------------------------------------------
-15^------------15---12------------------------------------------------
---------------------------14^-p12-14---12-14----12--14^----12--14--12-
-----------------------------------------------------------------------
-----------------------------------------------------------------------
-----------------------------------------------------------------------
----15-------------15-----15-----15------------------------------------
----15-------15----15-----15-------15----------------------------------
-14^--14--12-14^-----14^----14^------14^-p12----14p12--x-x----12^------
---------------------------------------------14--------x-x-------------
-----------------------------------------------------------------------
-----------------------------------------------------------------------
-----------------------------------------------------------------------
-----------------------------------------------------------------------
-----------------12h14p12----12^--------------------12h14p12-----12-12-
-14p12-14----x-x----------14--------14p12-14----x-x----------14--------
-----------------------------------------------------------------------
-----------------------------------------------------------------------
----------------------------------------------12-12-------15-15p12--15-
-------------------12-12-------15-15p12-------------15p12--------------
-------14-14p12-14-------14p12-----------------------------------------
-14p12-----------------------------------------------------------------
-----------------------------------------------------------------------
-----------------------------------------------------------------------
-14----12h15p12---------12-----------12-----------12-----------12-------
----15----------15--15^----15p12--------15p12-15^----15p12--------15p12-
----------------------------------14^-----------------------14^---------
------------------------------------------------------------------------
------------------------------------------------------------------------
------------------------------------------------------------------------
------12-----------12-----------12--------------12-------15^-----------
--15^----15p12--------15p12-15^----15p12-----12----15p12---------------
---------------14^-----------------------14^---------------------------
-----------------------------------------------------------------------
-----------------------------------------------------------------------
-----------------------------------------------------------------------
--------------------15------12h15p12----12------12---------------------
-------------------------------------15-----15^-----15p12--------------
-----------------------------------------------------------14^-p12-14^-
-----------------------------------------------------------------------
-----------------------------------------------------------------------
-----------------------------------------------------------------------
---------------------------------------------------
-------15------------------------------------------
----------14^-p12-14^----14p12--------------12----
----------------------14-------14------------------
---------------------------------------------------
---------------------------------------------------

6 Comments

  • vincent dit :

    Bonsoir je pense que par rapport à la vidéo faut jouer plus grave d’un ton!!!

  • piet dit :

    1/2 ton en dessous mon gars….

  • p@tr!ck dit :

    moi j’ai 12 an et je la joue mais au début le plus dur c’est la deuxième partie la vache vous avez des conseil ??

  • bily joer amstrong dit :

    salut je cherche ce morcau mes avec le deusieme guitariste si quelqun aurai un site ou il si son se cerai simpa ON LOVE

  • Space_M0unkey dit :

    Hello super tab, seulement le tout se joue un demi ton en dessous ( Toutes les notes sont une case plus haute = plus grave )

  • sebo dit :

    Il faut jouer un demi-ton plus grave certes mais c’est parce qu’ils sont accordés un demi-ton plus grave (Slash commence bien en 12eme case).
    Si on veut pas s’accorder un demi-ton plus bas, il suffit de tout jouer une case de moins (11eme au lieu de 12eme).
    Voilà, bonne grat

Leave a Reply

Ce site utilise Akismet pour réduire les indésirables. En savoir plus sur comment les données de vos commentaires sont utilisées.