Guns N Roses

Guns N’ Roses – Knocking On Heaven’s Door

Vidéo guitare et chant, tablature gratuite, accords, paroles de la chanson «Knocking On Heaven’s Door» des Guns N’ Roses.

Tablature, accords, paroles

Intro

G5            D                C
-3---3--------------2-0-------|-----------------0--------------------|---
-3-----3---3------3-----3---3-|----------1--------------1------------|---
-0-------0------2---------2---|-0------0---0----------0---0-0------0-|---
-0------------0---------------|-0-2----------2------2-------0-2------|---
------------------------------|--H---3-----------------------H---3---|---
-3----------------------------|--------------------------------------|---


G5         D               Am
Mamma take this badge from me
G5         D         C
I can't use it anymore
G5                D             Am
It's getting dark, too dark to see
G5             D                       C
Feels like I'm knockin' on heaven's door

Chorus

G5            D5                     C5
Knock, knock, knockin' on heaven's door,
C5
Hey, hey, hey, hey, yeah
G5            D5                     C5
Knock, knock, knockin' on heaven's door,
C5
(no lyrics)
G5                 D5                     C5
Ooh, knock, knock, knockin' on heaven's door
C5
Ooh yeah
G5            D5                     C5
Knock, knock, knockin' on heaven's door
C5
Hey, hey, hey, hey, yeah

1er solo de guitare

G                  D          C
------------------------------------------------------
----^^---P---------15--^------~~~~~~~~~~~~------------
-12-14-14-12-14-------14-12-12-------------------12---
------------------------------------------13/14-------
------------------------------------------------------
------------------------------------------------------
G                     D           C
---------------P------------P--------P------------------15----
15/17---15---13-12-13/15--13-12---13--12----------12-13----13-
-------------------------------------------~~~~~~~------------
-----------------------------------------14-------------------
--------------------------------------------------------------
--------------------------------------------------------------
G              ^^  D   ^^  ^^  C
--~~~-------15-17--17--17--17--15-----------------------------
12---15/17----------------------------------------------------
--------------------------------------------------------------
--------------------------------------------------------------
--------------------------------------------------------------
--------------------------------------------------------------
G ^^              ^^ D             C
--20-20-19-20--19-20--20-20-20---~~~~~----------------------------------
-------P-----------------------17------^^----^^-------------------------
---------------------------------------19-19-19-19-^-----^--------------
---------------------------------------------------19-19-19-19----------
---------------------------------------------------------------17--17---
------------------------------------------------------------------------



Mama, put my guns in the ground
I can't shoot them anymore
That cold black cloud is comin' down
Feels like I'm knockin' on heaven's door

Chorus

G5            D5                     C5
Knock, knock, knockin' on heaven's door,
C5
Hey, hey, hey, hey, yeah
G5            D5                     C5
Knock, knock, knockin' on heaven's door,
C5
(no lyrics)
G5                 D5                     C5
Ooh, knock, knock, knockin' on heaven's door
C5
Ooh yeah
G5            D5                     C5
Knock, knock, knockin' on heaven's door
C5
Hey, hey, hey, hey, yeah

Solo 2:

E|-------------------------------------------------------|
B|--19b~~~~~~~r-19---19brp17-19-1717----20-17--20-17br---|
G|-------------------------------------------------------|
D|-------------------------------------------------------|
A|-------------------------------------------------------|
E|-------------------------------------------------------|

E|----------------------------------------16---18b-18p16-|
B|-1517--1517--------1517---------------13--16-----------|
G|-----------------------------------/13-----------------|
D|-----17----19br1719----19br19br17----------------------|
A|-------------------------------------------------------|
E|-------------------------------------------------------|

E|-1618P161620192022b--20192022b--20192022b-22b22b-------|
B|------------------------------------------------2022b--|
G|-------------------------------------------------------|
D|-------------------------------------------------------|
A|-------------------------------------------------------|
E|-------------------------------------------------------|

E|-------------------------------------------------------|
B|--2022br-202222b-202220--20~~---2019----19br-17191717--|
G|-------------------------------------------------------|
D|-------------------------------------------------------|
A|-------------------------------------------------------|
E|-------------------------------------------------------|

E|-------------------------------------------------------|
B|-2017--17~~15~~12~~~~~~--------------------------------|
G|------------------------12~--11~---11br-9~---7---5/4---|
D|----------------------------------------------------5--|
A|-------------------------------------------------------|
E|-------------------------------------------------------|

2 Comments

  • pichou dit :

    J’ai plus simple …
    Version avril lavigne :
    G-D-Am
    G-D-C
    Rythm :
    bas bas bas bas haut
    | | |__| |

    Et pour une meilleure approche on fait deux fois l’accord en fin de phrase ..
    donc : G-D-Am-Am et G-D-C-C ..

    J’espere que ca vous aura aidé !

  • pichou dit :

    Désolé ..
    Bas (1temps) Bas (1 temps) Bas Bas (croche) Haut (1temps)

Leave a Reply

Ce site utilise Akismet pour réduire les indésirables. En savoir plus sur comment les données de vos commentaires sont utilisées.