Francis Cabrel

Francis Cabrel – L’encre de tes yeux

Tablature gratuite de la chanson “L’encre de tes yeux” de Francis Cabrel.

Clip vidéo

Voir tous les clips Francis Cabrel

Tablature, accords, paroles:

Intro:

    E              B                C#m
E |-0--------0--------------------|---------------------------------|
B |------0-------0-4--------4-----|-5--------5-----4h-5-------5-----|
G |----1-------1--------4-------4-|------6-------6--------6-------6-|
D |-------------------4-------4---|----6-------6--------6-------6---|
A |----------------2------2-------|-4------4-------4--------4-------|
E |-0------0----------------------|---------------------------------|

  A              E                B
|-0--------0-----0--------0-----|-------------------------------|
|------2-------2------0-------0-|-4--------4-----4--------4-----|
|----2-------2------1-------1---|------4-------4------4-------4-|
|-------------------------------|----4-------4------4-------4---|
|-0------0----------------------|-2------2-------2------2-------|
|----------------0------0-------|-------------------------------|

  E              B                C#m
|-0--------0--------------------|---4-----------4---4-----------4-|
|------0-------0-4--------4-----|-------5---5-5---------5---5-5---|
|----1-------1--------4-------4-|-----6---------------6-----------|
|-------------------4-------4---|---------------------------------|
|----------------2------2-------|-4-------6-------4-------6-------|
|-0------0----------------------|---------------------------------|



E            B            C#m
Puisqu'on ne vivra jamais tout les deux
      A                   E
Puisqu'on est fous, puisqu'on est seuls
      B
Puisqu'ils sont si nombreux
E       B         C#m
Même la morale parle pour eux
A                        E
J'aimerais quand même te dire
                       B
Tout ce que j'ai pu écrire
                        A
Je l'ai puisé à l'encre de tes yeux
E   Esus4   E   F#m11
        
Je n'avais pas vu que tu portais des chaines
A trop vouloir tout oublier
J'en oubliais les miennes
On rêvait de Venise et de liberté
'aimerais quand même te dire
Tout ce que j'ai pu écrire
C'est ton sourire qui me l'a dicté

E   B   C#m   A   E   B
E   B   C#m   A   E   B
A   E   Esus4   E   F#m11
        
Tu viendras longtemps marcher dans mes rêves
Tu viendras toujours du côté
Où le soleil se lève
Et si malgré ça j'arrive à t'oublier
J'aimerais quand même te dire
Tout ce que j'ai pu écrire
Aura longtemps le parfum des regrets

Et puisqu'on ne vivra jamais tous les deux
Puisqu'on est fous, puisqu'on est seuls
Puisqu'ils sont si nombreux
Même la morale parle pour eux
J'aimerais quand même te dire
Tout ce que j'ai pu écrire
Je l'ai puisé dans l'encre de tes yeux

E   Esus4   E   F#m11   E

2 Comments

Leave a Reply

Ce site utilise Akismet pour réduire les indésirables. En savoir plus sur comment les données de vos commentaires sont utilisées.