Yodelice

Yodelice – Wake me up

Tablature gratuite de la chanson “Wake me up” de Yodelice.

Tablature, accords, paroles:

CAPO 3

Intro : 

e|-------------------------------------------------------
b|-------------------------------------------------------
g|-4-------4-------2---0---------------------------------
d|-----------------------------2-------0---2-------------
a|-------------------------------------------------------
E|-0---0---0---0---0---0---0---0---0---0---0---0---0---0-



e|-------------------------------------------------------
b|-------------------------------------------------------
g|-----0---2-------2-------2---0-------------------------
d|-0h2---------------------------------2-------0---2-----
a|-------------------------------------------------------
E|-0---0---0---0---0---0---0---0---0---0---0---0---0---0-



e|-------------------------------------------------------
b|-------------------------5-----------------------------
g|-------------0---4---------------4---2---0-------------
d|---------0h2---------------------------------2-------0-
a|-------------------------------------------------------
E|-0---0---0---0---0---0---0---0---0---0---0---0---0---0-



e|-------------------------------------------------------
b|-------------------------------------------------------
g|---------------------0---2-------2-------2---0---------
d|-2---------------0h2-----------------------------2-----
a|-------------------------------------------------------
E|-0---0---0---0---0---0---0---0---0---0---0---0---0---0-



e|-------------------------------------------------------
b|-------------------------------------------------------
g|-------------------------------------------------------
d|-0---2-------------------------------------------------
a|-------------------------------------------------------
E|-0---0---0---0---0---0---0---0---0---0---0---0---0---0-




Refrain : 

e|-------------------------------------------------------
b|-5-------------------------------2---------------------
g|-5-----------0-------------------2-----------2---------
d|---------------------2-------------------------------0-
a|-------------------------------------------------------
E|-0---0---0---0---0---0---0---0---0---0---0---0---0---0-



e|-------------------------------------------------------
b|---------0---------------------------------------------
g|---------0-----------0---------------------------------
d|-----------------------------2-------------------------
a|-------------------------------------------------------
E|-0---0---0---0---0---0---0---0---0---0---0---0---0---0-



Paroles :

Mama wash the blood on my hands
I've sell my soul to someone, I said
Mama wash the blood on my hands
I've pull the trigger and I may be dead

Wake me up (x3)
Wake me up (x3)

Mama, what's the cold in my veins ?
Is it dawn or dusk, I couldn't tell
Mama, wish I don't die today
'cause I go go go straight to hell

Wake me up (x3)
Wake me up (x3)

One Comment

Leave a Reply

Ce site utilise Akismet pour réduire les indésirables. En savoir plus sur comment les données de vos commentaires sont utilisées.