Yodelice

Yodelice – More than meets the eye

Tablature gratuite de la chanson “More than meets the eye” de Yodelice.

Tablature, accords, paroles:

Riff couplets:
                            Am                  Am         
E||---------------------|---------------------|------------------------||
B||---------------------|---------------------|------------------------||
G||---------------------|---5----5----5---5---|------------5---5---5---||
D||---------------------|---7----7----7---7---|------------7---7---7---||
A||----7----5------3----|---7----7----7---7---|--------3---7---7---7---||
E||---------------------|---5----5----5---5---|--3--5------5---5---5---||
                  
                        
Riff refrain:
    C                      G                     Am                
E||----------------------|---------------------|---------------------|
B||----------------------|---------------------|---------------------|
G||-9--9--9--9--9--9--9--|-4--4--4--4--4--4--4-|----5-----5-----5----|
D||-10-10-10-10-10-10-10-|-5--5--5--5--5--5--5-|----7-----7-----7----|
A||-10-10-10-10-10-10-10-|-5--5--5--5--5--5--5-|----7-----7-----7----|
E||-8--8--8--8--8--8--8--|-3--3--3--3--3--3--3-|----5-----5-----5----|
                                                                         
 
                          Am                 x2
E|---------------------|--------------------||
B|---------------------|--------------------||
G|---------------------|--5--5--5--5--5--5--||
D|---------------------|--7--7--7--7--7--7--||
A|----7----5------3----|--7--7--7--7--7--7--||
E|---------------------|--5--5--5--5--5--5--||


Couplet:
You are the one, Let's have some fun
You show I run, You are the one
There's more to us, Than meets the eye
More to the world, Than you and I

Refrain:
Unsmooth me about
Ruffle me up somewhat
Bring me a bit of what
You think I haven't got

Couplet:
Be my someone, My once upon
Our one on one, Let's come undone
There's more to us, Than meets the eye
More to the world, Than you and I

Refrain:
Unsmooth me about
Ruffle me up somewhat
Bring me a bit of what
You think I haven't got

Shockproof me about
I'll be dead in a bang
I know you'll have my back
You won't leave me to hang

Pont:
F    E   G   C    Am
F    E   G   G#   Am      

Refrain:
Unsmooth me about
Ruffle me up somewhat
Bring me a bit of what
You think I haven't got

Shockproof me about
I'll be dead in a bang
I know you'll have my back
You won't leave me to hang

Unsmooth me about
Ruffle me up somewhat
Bring me a bit of what
You think I haven't got

Shockproof me about
I'll be dead in a bang
I know you'll have my back
You won't leave me to hang.

2 Comments

Leave a Reply

Ce site utilise Akismet pour réduire les indésirables. En savoir plus sur comment les données de vos commentaires sont utilisées.