Yodelice

Yodelice & Marion Cotillard – Five thousand nights

Tablature gratuite de la chanson “Five thousand nights” de Yodelice.

Clip vidéo

Tablature, accords, paroles:

Couplet :   X4
                  Am                                         
E : ---------------------------------------------------------
B : -------1--------1-----------------1--------1-------------
G : -------2--------2-----------------2--------2-------------
D : -------2--------2-----------------2--------2-------------
A : ---0-----------------------------------------------------
E : --------------------------0------------------------------

                            C
-------------------------------------------------------------------
-------------------------1------1--------------1------1------------
-------------------------0------0--------------0------0------------
-------------------------2------2--------------2------2------------
0----2----3--------------------------------------------------------
---------------------------------------------0---------------------


                  Em                                         
E : ---------------------------------------------------------
B : -----------0--------0-----------------0------0-----------
G : -----------0--------0-----------------0------0-----------
D : -----------2--------2-----------------2------2-----------
A : -------------------------------2-------------------------
E : ----0----------------------------------------------------

                    Am
--------------------------------------------------------------------
---1-----1------------------1-------1-------------------------------
---2-----1------------------1-------1-------------------------------
---2-----2------------------2-------2-------------------------------
-0------------------------------------------------------------------
--------------------0-----------------------------------------------



Pré-refrain :
                 Am                                               
E : --------------------------------------------------------------
B : -------1--------1-----------------1--------1------------------
G : -------2--------2-----------------2--------2------------------
D : -------2--------2-----------------2--------2------------------
A : ---0-----------------------------------------------------0----
E : --------------------------0-----------------------------------

                  C
--------------------------------------------------------------
--------------------1------1--------------1------1------------
--------------------0------0--------------0------0------------
--------------------2------2--------------2------2------------
--------------------------------------------------------------
----------------------------------------0---------------------

                       Em                                  
E : -------------------------------------------------------
B : -----------0--------0-----------------0------0---------
G : -----------0--------0-----------------0------0---------
D : -----------2--------2-----------------2------2---------
A : -------------------------------2-----------------------
E : ----0--------------------------------------------------

                               F
--------------------------------------------------------------------
-----1-----1--------------1-------1----------1----1-----------1---1-
-----2-----2--------------2-------2----------2----2-----------2---2-
-----3-----3--------------3-------3-----------3----3----------3---3-
-----------------------3----------------------------------------3---
1---------------------------------------------1---------------------


Refrain :
                        Dm                                      
E : ---------------1------------1-------------------------------
B : ---------------3------------3--------------------1------1---
G : ---------------2------------2--------------------0------0---
D : -----0-------------------------------------------2------2---
A : ----------------------0-----------------3-------------------
E : ------------------------------------------------------------

    C
------------------------------------------------------------------
-------------------1------1---------------------------------------
-------------------0------0---------------------------------------
-------------------2------2---------------------------------------
------------------------------------------------------------------
-----0------------------------------------------------------------

                  Em                                        
E : --------------------------------------------------------
B : -----------0--------0-----------------0------0----------
G : -----------0--------0-----------------0------0----------
D : -----------2--------2-----------------2------2----------
A : -------------------------------2------------------------
E : ----0---------------------------------------------------

                              Am
---------------------------------------------------------------------
----1-----1------------------1-------1-------------------------------
----2-----1------------------1-------1-------------------------------
----2-----2------------------2-------2-------------------------------
--0------------------------------------------------------------------
---------------------0-----------------------------------------------


E : ---------------1------------1---------------------------------
B : ---------------3------------3--------------------1------1-----
G : ---------------2------------2--------------------0------0-----
D : -----0-------------------------------------------2------2-----
A : ----------------------0-----------------3---------------------
E : --------------------------------------------------------------

----------------------------------------------------------------
-----------------1------1---------------------------------------
-----------------0------0---------------------------------------
-----------------2------2---------------------------------------
---------------------------------------------------------------
---0------------------------------------------------------------


E : --------------------------------------------------------
B : -----------0--------0-----------------0------0----------
G : -----------0--------0-----------------0------0----------
D : -----------2--------2-----------------2------2----------
A : -------------------------------2------------------------
E : ----0---------------------------------------------------

--------------------------------------------------------------------
----1-----1---------------1-------1-------------1-------------------
----2-----1---------------1-------1-------------1-------------------
----2-----2---------------2-------2-------------2-------------------
-0-------------------0-----------0--------------0-------------------
--------------------3------------3-------------3--------------------


Répéter le tout une fois



I do believe it's a chance
That's not a chance, not a chance
You can despare me a dance
Not a chance, not a chance
This one will not be the last
Not a chance, not a chance

I've been hoping for someone like you
Five thousand nights
Let me be the one to love you fall
Five thousand nights

What is the worl was a chance
That's not a chance, not a chance
You cry the song that I check
Not a chance, not a chance

I've been hoping for someone like you
Five thousand days
Let me be the one to love you fall
Five thousand all

10 Comments

  • Marielle dit :

    Les paroles corrigées (version du digital booklet fourni avec l’album)

    Five thousand nights

    I do believe there’s a chance, that
    Not a chance
    Not a chance
    You care to spare me a dance,and
    Not a chance
    Not a chance
    This waltz will not be the last
    Not a chance
    Not a chance

    I’ve been hoping for
    Someone like you
    Five thousand nights
    Let me be the one
    To love you for
    Five thousand more

    What is the world was a chance, that
    Not a chance
    Not a chance
    You cried the song that I chanted
    Not a chance
    Not a chance

    I’ve been hoping for
    Someone like you
    Five thousand days
    Let me be the one
    To love you for
    Five thousand more

  • dakarou dit :

    ça sonne pas du tout pareille que la chanson à la guitare , n’y aurait-il pas un capo quelque part ou une erreur dans la partition parce que c’est loin de la réalité …

  • Jaimd dit :

    Chez moi, avec une guitare enfant d’étude correctement accordée, c’est exactement ça…..

  • antoine dit :

    Il suffit de regarder les mains de yodelice pour voir que ce sont les bons accords

  • dakarou dit :

    oui c’est les bon accord mais pour que ça sonne exactement pareille il faut s’accorder en bémol … J’ai quelques années de guitare et mon prof dit la même chose donc je pense que c’est ça !!! avec une guitare accordée normalement c’est pas au même ton …

  • Sirioll dit :

    (il faut effectivement accorder la guitare dans la même tonalité que celle de la vidéo)

    Globalement les accords sont justes mais il y a 2-3 coquilles au début qu’il est intéressant de corriger pour avoir une version plus propre:

    E : ———————————————————
    B : ——-1——–1—————–1———————-
    G : ——-2——–2—————–2———————-
    D : ——-2——–2—————–2———————-
    A : —0—————————————————–
    E : ————————–0——————————

    C
    ——————————————————————-
    ————————-1——1————–1——1————
    ————————-0——0————–0——0————
    ————————-2——2————–2——2————
    0—-2—-3——————————————————–
    ——————————————>>3<<——————-

    Em
    E : ———————————————————
    B : ———–0——–0—————–0——0———–
    G : ———–0——–0—————–0——0———–
    D : ———–2——–2—————–2——2———–
    A : ——————————-2————————-
    E : —-0—————————————————-

    Am
    ——————————————————————–
    —1—–1——————1——-1——————————-
    —2—–2——————2——-2——————————-
    —2—–2——————2——-2——————————-
    -0——————————————————————
    ——————–0———————————————–

    Je n'ai pas regardé plus loin parce qu'il est tard et que je viens de découvrir cette chanson mais il y a sûrement moyen de rendre cette tablature plus juste encore.

  • Sirioll dit :

    E : ———————————————————
    B : ——-1——–1—————–1———————-
    G : ——-2——–2—————–2———————-
    D : ——-2——–2—————–2———————-
    A : —0——————————————–0—-2
    E : ————————–0——————-0———
    (à la fin de cette première série, le pouce doit glisser de la 6e à la 5e corde rapidement… je ne sais pas si c’est clair car je n’ai pas l’habitude de commenter des tabs puisque je suis plutôt sur partitions; enfin, écoutez et vous verrez)

    C
    ——————————————————————-
    ————————-1——1————–1——1————
    ————————-0——0————–0——0————
    ————————-2——2————–2——2————
    —-—-3——————————————————–
    ——————————————>>3<<——————-

  • val dit :

    j’aime beaucoup Yodelice, une chanson qui me tiens à coeur, c’est Lady in Black, je cherche la partition, merci à tous

  • CrazyFly dit :

    alors, je la fait avec mon écoles de musique, et la tablature n’est tout à fait la même… ni les paroles, je vous les met sur le site quand j’aurais un peu plus de temps ! ( la c’est la course pour avoir accès à l’ordi deux secondes ^^ )

  • Jo dit :

    en regardant les mains tu ne voie pas si ça sonne pareil. tu voie si la position est la meme mais ça ne veut pas dire grand chose.

    surtout que ce chanteur a l’habitude d’utiliser des guitares aux accordage pour le moins particulier, genre Open de ré b.

    a priori comme dakarou, je pense que pour le coup ça doit juste etre un accord un 1/2 ton plus bas.

    j’essayerait.

    en tout cas merci cette chanson est bien sympa.

Leave a Reply

Ce site utilise Akismet pour réduire les indésirables. En savoir plus sur comment les données de vos commentaires sont utilisées.