The Script

The Script – The Man Who Can’t Be Moved

Vidéo guitare et chant, tablature, accords, paroles de la chanson “The Man Who Can’t Be Moved” de The Scrpit.

Tablature : accords, paroles

 Intro :
   A             A/G#                 D
|-----------------------------------|---------------------------------|
|-----------------------------------|-----0-----2---------0-----2-----|
|-----2------2---------2-----2------|---2---2-----(2)---2---2-----(2)-|
|---2---2------(2)---2---2-----(2)--|-0-------0-------0-------0-------|
|-0-------0-------------------------|---------------------------------|
|------------------4-------4--------|---------------------------------|

      A                          A/G#
Going back to the corner where I first saw you,
      D
Gonna camp in my sleeping bag I'm not gonna move,
Got some words on cardboard got your picture in my hand,
Saying if you see this girl can you tell her where I am,
Some try to hand me money they don't understand,
I'm not...broke I'm just a broken hearted man,
I know it makes no sense, but what else can I do,
How can I move on when I'm still in love with you... 

Refrain :
        A                                E
Cos if one day you wake up and find that you're missing me,
          Bm                                  D
And your heart starts to wonder where on this earth I can be,
          A                                  E
Thinking maybe you'll come back here to the place that we'd meet,
          Bm                            D
And you'd see me waiting for you on the corner of the street.
            A        E
So I'm not moving...
         Bm        D
I'm not moving.

rejouer intro :
   A             A/G#                 D
|-----------------------------------|---------------------------------|
|-----------------------------------|-----0-----2---------0-----2-----|
|-----2------2---------2-----2------|---2---2-----(2)---2---2-----(2)-|
|---2---2------(2)---2---2-----(2)--|-0-------0-------0-------0-------|
|-0-------0-------------------------|---------------------------------|
|------------------4-------4--------|---------------------------------|

A                       A/G#
Policeman says son you can't stay here,
               D
I said there's someone I'm waiting for if it's a day, a month, a year,
Gotta stand my ground even if it rains or snows,
If she changes her mind this is the first place she will go.

Refrain :

        A                                E
Cos if one day you wake up and find that you're missing me,
          Bm                                  D
And your heart starts to wonder where on this earth I can be,
          A                                  E
Thinking maybe you'll come back here to the place that we'd meet,
          Bm                            D
And you'd see me waiting for you on the corner of the street.
            A        E
So I'm not moving...
         Bm        D
I'm not moving.
         A        E
I'm not moving...
         Bm        D
I'm not moving.

Pont :
F#m                     D
  People talk about the guy
                    E
Who's waiting on a girl...
Bm
Oohoohwoo
F#m                         D
  There are no holes in his shoes
                      E
But a big hole in his world...
Bm
Hmmmm

    D                            E
and maybe I'll get famous as the man who can't be moved,
    D                                  E
And maybe you won't mean to but you'll see me on the news,
                D                           E
And you'll come running to the corner...
                           Bm
Cos you'll know it's just for you
I'm the man who can't be moved
Bm
I'm the man who can't be moved... 

Refrain :
        A                                E
Cos if one day you wake up and find that you're missing me,
          Bm                                  D
And your heart starts to wonder where on this earth I can be,
          A                                  E
Thinking maybe you'll come back here to the place that we'd meet,
          Bm                            D
And you'd see me waiting for you on the corner of the street.

[Le refrain est répété en fond]

            A        E
So I'm not moving...
         Bm        D
I'm not moving.
         A        E
I'm not moving...
         Bm        D
I'm not moving.

Fin sur l'intro :

  A             A/G#                  D
|-----------------------------------|---------------------------------|
|-----------------------------------|-----0-----2---------0-----2-----|
|-----2------2---------2-----2------|---2---2-----(2)---2---2---------|
|---2---2------(2)---2---2-----(2)--|-0-------0-------0-------0-------|
|-0-------0-------------------------|---------------------------------|
|------------------4-------4--------|---------------------------------|

5 Comments

Leave a Reply

Ce site utilise Akismet pour réduire les indésirables. En savoir plus sur comment les données de vos commentaires sont utilisées.