Rakes (The)

The Rakes – Open book

Vidéo guitare et chant, tablature gratuite, accords, paroles de la chanson “Open Book” de The Rakes.

Tablature, accords, paroles

Intro (x2)
e-7-7-7-7-7-7-7-7-7-7-7-7-7-7-7-7-|
B-9-9-9-9-9-9-9-9-9-9-9-9-9-9-9-9-|
G-8-8-8-8-8-8-8-8-9-9-9-9-9-9-9-9-|
D---------------------------------|
A---------------------------------|
E---------------------------------|

Refrain ("Oh oh...") (x2)
e-------------------------------------------------|
B-------------------------------------------------|
G-8--8-8-6--6-6-6-6-8-----------------------------|
D-8--8-8-6--6-6-6-6-8-9---2--2-2-4--4-4-6-6-6-9---|
A-6--6-6-4--4-4-4-4-6-9---2--2-2-4--4-4-6-6-6-9---|
E---------------------7---0--0-0-2--2-2-4-4-4-7---|


Break ("Thigs are going to slide...") x2
e-7-7-7-7-7-7-7-7-7-7-7-7-7-7-7-7-7-7-7-7-7-7-7-7-8-8-8-8-8-8-8-8-|
B-8-8-8-8-8-8-8-8-7-7-7-7-7-7-7-7-8-8-8-8-8-8-8-8-8-8-8-8-8-8-8-8-|
G-9-9-9-9-9-9-9-9-7-7-7-7-7-7-7-7-7-7-7-7-7-7-7-7-9-9-9-9-9-9-9-9-|
D-----------------------------------------------------------------|
A-----------------------------------------------------------------|
E-----------------------------------------------------------------|


Outro ("You are not...")
e-----------------------------------------------------------------|
B-----------------------------------------------------------------|
G-9-9-9-9-9-9-9-9-6-6-6-6-6-6-6-6---------------------------------|
D-9-9-9-9-9-9-9-9-6-6-6-6-6-6-6-6-7-7-7-7-7-7-7-7-9-9-9-9-9-9-9-9-|
A-7-7-7-7-7-7-7-7-4-4-4-4-4-4-4-4-7-7-7-7-7-7-7-7-9-9-9-9-9-9-9-9-|
E---------------------------------5-5-5-5-5-5-5-5-7-7-7-7-7-7-7-7-|


Fin :
e----
B----
G-9~-
D-9~-
A-7~-
E----

Paroles :

You are not an Open Book
I can't do nothing'boot that
But i'm worried,i'm overdrawn
What am i doing up at the witching hour?

Oh-o-oh-o
Oh-o-oh-o
Oh-o-oh-o
Oh-o-oh-o

Tick up a book,pu down a book
Turn on the TV
It's to AM,there's nothing on
I just need something to focus on

refrain

Things are going to slide
Slide out of control
I hope that you come back
I can't eat,can't sleep
When i close my eyes
The thought of you denies
Me,the rest,and the hair
That i need

The longer you are far from me
The more i drift away
I didn't see the warning signs
I was falling throught the cracks

refrain X2

you are not
An Open Book
I am worn and torn
I am overdrawn

2 Comments

  • Titya dit :

    J’ai essayé de la jouer avec ma guitare classique, mais ça donne vraiment nimporte quoi… J’ai une amie qui a une guitare électrique qui a testé, rien non plus… Help?

  • Fuzer dit :

    Salut Titya j’ai trouvé quelque chose qui y ressemble vaguement (en très simplifier):

    Refrain (“Oh oh…”) (x2)
    e—————————————-|
    B—————————————-|
    G——–4-4–6-6-4~~——————–|
    D-6–6-6-4-4–6-6-4~~-2–2-2-2-2-2-2-2—|
    A-6–6-6-2-2–4-4-2~~-2–2-2-2-2-2-2-2—|
    E-4–4-4————–0–0-0-0-0-0-0-0—|

    Voila, j’espère t’aider! bon courage! ;)

Leave a Reply

Ce site utilise Akismet pour réduire les indésirables. En savoir plus sur comment les données de vos commentaires sont utilisées.