Doors (The)

The Doors – Light my fire

Tablature gratuite de la chanson “Light my fire” de The Doors.

Tablature, accords, paroles:

intro: G, D, F, Bb, C#, Ab, A


Accords couplets : Am7, F#m7 

E|----5---5-----2---2---              
B|----5---5-----2---2---
G|----5---5-----2---2---
D|----5-X-5-----2-X-2---     (x4)
A|--7-7-X-7---4-4-X-4---
E|--5-5-X-5---2-2-X-2---

Accords refrain :    G,A,D,   G,A,D,B,   G,D,E

E|--3-3-3-3--0-0--2--2-3-2-2--|-3-3-3-3--0-0--2-2--2-2--|--3-3-3-3--2-2--0-0-0-0-0--|
B|--3-3-3-3--2-2--3--3-3-3-3--|-3-3-3-3--2-2--3-3--4-4--|--3-3-3-3--3-3--0-0-0-0-0--|
G|--0-0-0-0--2-2--2--2-2-2-2--|-0-0-0-0--2-2--2-2--4-4--|--0-0-0-0--2-2--1-1-1-1-1--|
D|--0-0-0-0--2-2--0--0-0-0-0--|-0-0-0-0--2-2--0-0--4-4--|--0-0-0-0--0-0--2-2-2-2-2--|
A|--2-3-3-3--0-0--------------|-2-2-2-2--0-0-------2-2--|--3-3-3-3-------2-2-2-2-2--|
E|--3-3-3-3-------------------|-3-3-3-3-----------------|--3-3-3-3-------0-0-0-0-0--|


Couplet 1:
    Am7                   F#m7
You know that it would be untrue           
You know that I would be a liar   
If I was to say to you                
Girl we couldn't get much higher       

Refrain:
   G            A        D
   Come on baby light my fire  
   G            A        D        B          
   Come on baby light my fire      
   G              D        E      
   Try to set the night on fire.            

Couplet 2:
The time to hesitate is through     
No time to wallow in the mire 
Try now we can only lose.              
And our love become a funeral pyre    


REFRAIN            


COUPLET 2

  
REFRAIN 


COUPLET 1


REFRAIN

Try to set the night on fire                                           
Try to set the night on fire
Try to set the night on fire

Leave a Reply

Ce site utilise Akismet pour réduire les indésirables. En savoir plus sur comment les données de vos commentaires sont utilisées.