Doors (The)

The Doors – The end

Tablature gratuite de la chanson “The end” de The Doors.

Tablature, accords, paroles:

Accordage : Drop D

Tablature:

e|-----------------|-------------|--------------------------------------------------
B|-3--3----2h3-----|-3---2h3-----|3-3---2h3----5---5/6----65--3--3-----------------
G|-2---2-------2--2|--2------2-2-|-2--------2---2---------------2-------------------
D|-0-----0------0--|---0------0--|----0-------0--0------0-----0---------0-------0h4-
A|-0---------------|-------------|-------------------------------------0-----0h4----
D|-----------------|-------------|----------------------------------0-----0h4-------

|----------------------------------|---------------------------------------------
|-----2h3-5p3-3-3---2h3-----2h3-5p3|-3-----3------3-------3-------3----2h3-----3-
|-0h2----2---2-2-------2-2-----2---|--2-2---2-2----2-----2-------2-2-2----2-2---2
|------------------0----0--0-------|0--0--0--0---0---------0--------0-0----0--0--
|----------------------------------|----------------0-2-3---3-2-0----------------0-2
|----------------------------------|---------------------------------------------

|-----------|-------------------------------------------|--------------------------|
|-----------|-------------------------------------------|---3---3-3-3-3-3----------|
|--2h3------|--2h3-----5---5/6-5----3---3----3-3-2h3-3--|--2---2--2-2-2-2----------|
|-----2-----|------2----2-------2--2---2----2-2-----2-2-|---------0-0-0-0-----0-0--|
|-3----3-2-0|---------0---0---0-----------0-----0-------|-3---2---0-0-0-0----0-0---|
|-----------|-------------------------------------------|------------------0-------|



Accords et paroles:

D                     C                D
This is the end, beautiful friend.
                          C              D
This is the end, my only friend, the end
      C       G              D
of our elaborate plans, the end
      C                          D
of everything that stands, the end,
       C      G       D
no safety or surprise, the end.
    C                               D
I'll never look into your eyes again.
 
 
               C                         D
Can you picture what will be,
     G7                 D
so limitless and free,
  C                   D                    G                    D
desp'rately in need of some stranger's hand,
       C                   D
in a    desp'rate land.
 
 
D
Lost in a roman wilderness of pain,
and all the children are insane... x 2
waiting for the summer rain.
There's danger on the edge of town,
Ride the king's highway.
Weird scenes inside the goldmine;
ride the king's highway west, baby.
Ride the snake... x 2
to the lake,
the ancient lake, baby.
The snake is long,
seven miles;
ride the snake,
he's old and his skin is cold.
The West is the best... x 2
Get here and we'll do the rest.
The blue bus is calling us... x 2
Driver, where you taking us?.. x 2
 
(Parlé)
 
D
The Killer awoke before dawn,
he put his boots on,
he took a face from the ancient gallery,
and he walked on down the hall.
He went to the room where his sister lived,
and then he paid a visit to his brother,
and then he walked on down the hall.
And he came to a door,
and he looked inside,
"Father?"
"Yes, son?"
"I want to kill you.
Mother I want to....."
Come on, baby, take a chance with us,
and meet me at the back of the blue bus... x 3
Come on, yeah.				

Leave a Reply

Ce site utilise Akismet pour réduire les indésirables. En savoir plus sur comment les données de vos commentaires sont utilisées.