Connells (The)

The Connells – ’74 ’75

Vidéo guitare et chant, tablature gratuite, accords, paroles de la chanson “74 75” par The Connells.

Tablature : accords, paroles

Intro: (x2)

   Am            C         G        Am(*)
E |------------------0-0---3-------|--------0---0-0---0-------------|
B |------------------1-1---0-------|--------1---0-1---1-------------|
G |------------------0-0---0-------|--------2---2-2---2-------------|
D |------2h0---------2-2---0-------|--------2---2-2---2-------------|
A |0---------3-0-3---------2-------|0---0-----0-----0---0-----------|
E |------------------------3-------|--------------------------------|


F         C          F                    C    C/B     F/A
   Got no reason for coming to me and the rain running down.
           C         Am(*)
There's no reason.
F          C          F                      C    C/B    F/A    
   And the same voice coming to me like it's all slowing down.
       C          G 
And believe me

          Am              C                G          F        Am  C  G
I was the one who let you know, I was your sorry-ever-after. '74-'75

F           C     F                          C       F
   It's not easy, nothing to say 'cause it's already said.
           C      Am(*)
It's never easy.
       F            C           Am        G       F
When I look on your eyes then I find that I'll do fine.
       Am           C              G
When I look on your eyes then I do better.

Chorus:
          Am              C                G          F        Am  C  G
I was the one who let you know, I was your sorry-ever-after. '74-'75
         Am              C                G           F       Am  C  G
Givin me more and i'll defy, cause you're really only after '74-'75.


Refaire intro

    C               G                Am
E -|--------------3/5-3---------0---/3-------------------------------|
B 3/5-3---3/5-3-----------5---------|----0-------3-------------------|
G -|----5-------5-------------------|--------5-------4---5-4/5-54---|
D -|--------------------------------|--------------------------------|
A -|--------------------------------|--------------------------------|
E -|--------------------------------|--------------------------------|

   C               G                Am
E |--------------------------------|--------------------------------|
B |--------------------------------|-------------------------------3/
G |0---------0h2h4/5-----4-----2-0-h2-------------------------------|
D |--------------------------------|--------------------------------|
A |--------------------------------|--------------------------------|
E |--------------------------------|--------------------------------|

   C               G                Am              F
E |--------------3/5-3------------3/5-3---3/5-3---------------------|
B /5-3---3/5-3-----------5-----5---|----5-------5---------5/6---5---|
G |----5-------5-------------------|----------------5---------------|
D |--------------------------------|--------------------------------|
A |--------------------------------|--------------------------------|
E |--------------------------------|--------------------------------|

   C               G                
E |--------------------------------|
B |--------------------------------|
G |------------------------5---4---|
D |--------------------------------|
A |--------------------------------|
E |--------------------------------|

F         C          F                    C    C/B     F/A
   Got no reason for coming to me and the rain running down.
           C         Am(*)
There's no reason.
       F            C           Am        G       F
When I look on your eyes then I find that I'll do fine.
       Am           C              G
When I look on your eyes then I do better.

Chorus:
          Am              C                G          F        Am  C  G
I was the one who let you know, I was your sorry-ever-after. '74-'75
         Am              C                G           F       Am  C  G
Givin me more and i'll defy, cause you're really only after '74-'75.

REFRAIN

10 Comments

  • sdfsdf dit :

    C’est la grande classe ce tube, merci, merci, merci !

  • Ceciile dit :

    ah ah cool jla chercher cet tablature et jsavais pas comment elle saplé la chanson :D
    il est vraiment cool votre site srx ;)

  • GRATTE dit :

    Pouvez vous me donner un rythme pour cette chanson??
    mercciiii =) !!

  • theconnells dit :

    je fais de la guitare depuis 2 ans mais je ne comprend cette tablature pourquoi les chiffres sont ils superposés les 1 sur les autes ? Merci.

  • Aano dit :

    Car tu dois les jouer en même temps.

  • bobix dit :

    Il ressemble à quoi l’accord F/A ?

  • Bloody fingers dit :

    F/A = x03211

  • bellul dit :

    C/B = x22010

  • Maxx dit :

    Et j’ai l’habitude de jouer ça sur la fin (en boucle) :

    E |—————–12—————————————————|
    B |——-13————13-15-13—-13——-13———-13——-13—–|
    G |-12h14—-14————————14-12—-14-12——-12-14——–|
    D |—————————————————14—————–|
    A |———————————————————————-|
    E |———————————————————————-|

    E |-12———————-|
    B |—-13-15-13h12———-|
    G |—————-12——-|
    D |————————-|
    A |————————-|
    E |————————-|

    Merci de me dire si vous entendez la même chose ;)

  • Maxx dit :

    Houla… le formatage est pourri lors des commentaires…

Leave a Reply

Ce site utilise Akismet pour réduire les indésirables. En savoir plus sur comment les données de vos commentaires sont utilisées.