Sum 41

Sum 41 – The Hell Song

Vidéo guitare et chant, tablature gratuite, accords, paroles de la chanson “The Hell Song” de Sum 41.

Tablature, accords, paroles

Intro
e|------------------------------------------------------|
B|------------------------------------------------------|
G|------------------------------------------------------| 3x
D|--------1---------1---------1--------2-2-1-1----------|
A|----2-4---2---2-4---2-2-2-4----2-------------4-4------|
E|-4----------0----------------------2------------------|
GUITARE 2
e|------------------------------------------------------|
B|------------------------------------------------------|
G|-------------------44444444---------------------------|
D|-66666666-22222222-44444444-44444444------------------|
A|-66666666-22222222-22222222-44444444------------------|
E|-44444444-00000000----------22222222------------------|
COUPLET 1
e|------------------------------------------------------|
B|------------------------------------------------------|
G|-------------------44444444---------------------------|
D|-66666666-22222222-44444444-44444444------------------| 2x
A|-66666666-22222222-22222222-44444444------------------|
E|-44444444-00000000----------22222222------------------|
p.m...................................
COUPLET 2 
e|------------------------------------------------------|
B|------------------------------------------------------|
G|-----------------4444444------------------------------| 2x
D|-6666666-2222222-4444444-44444444---------------------|
A|-6666666-2222222-2222222-44444444---------------------|
E|-4444444-0000000---------22222222---------------------|
..................................  
REFRAIN
e|------------------------------------------------------|
B|------------------------------------------------------|
G|-------------------44444444---------------------------| 2x
D|-66666666-22222222-44444444-44444444------------------|
A|-66666666-22222222-22222222-44444444------------------|
E|-44444444-00000000----------22222222------------------|
GUITARE 2
e|------------------------------------------------------|
B|------------------------------------------------------|
G|------------------------------------------------------| 2x
D|--------1---------1---------1--------2-2-1-1----------|
A|----2-4---2---2-4---2-2-2-4----2-------------4-4------|
E|-4----------0----------------------2------------------|
e|------------------------------------------------------|
B|------------------------------------------------------|
G|-----------------4444444------------------------------|4x
D|-6666666-2222222-4444444-44444444---------------------|
A|-6666666-2222222-2222222-44444444---------------------|
E|-4444444-0000000---------22222222---------------------|
................................  
REFRAIN
e|------------------------------------------------------|
B|------------------------------------------------------|
G|------------9-999999-4-444444-------------------------|
D|-646-666666-9-999999-4-444444-4-44444-----------------| 4x
A|-646-666666-7-777777-2-222222-4-44444-----------------|
E|-424-444444-------------------2-22222-----------------|
e|------------|
B|------------|
G|------------|
D|-66-66-66-6-|
A|-66-66-66-6-|
E|-44-44-44-4-|
SOLO
|-------------------------------------------------------------------------------------------------------
|---9-----99999----9-----99999-------------------------------------------------------------------------- 
|---11(13)---------11(13)-------11----11-11-11-11/9/8----6-8-9-6/8-4/6-3-----4-6-8-9/8-6-4/6-8----------
|-------------------------------------------------------------------------------------------------------
|-------------------------------------------------------------------------------------------------------
|-------------------------------------------------------------------------------------------------------
-------------------------------------------------------------------------------------------------------------------
-------------------------------------------------------------------9--------11-------12-------14-----14-12-12------
-------------------------------------------------------------------11(13)---13(15)---14(16)---16(18)---------------
-8h9p8h9p8h9--9h11p9h11p9h11--11h13p11h13p11h13--13h14p13h14p13h14-------------------------------------------------
-------------------------------------------------------------------------------------------------------------------
-------------------------------------------------------------------------------------------------------------------
---------------------------------------------------------------------------------------------------------
--14/16-----16-16-16-16---14/16-----16-16-16-16---16-----19-----------------16-----19--------------------
--16/18(20)---------------16/18(20)---------------18(20)------18-16-16------18(20)-------18-16-16--------
---------------------------------------------------------------------------------------------------------
---------------------------------------------------------------------------------------------------------
---------------------------------------------------------------------------------------------------------
-------------------------------------------------------|
--11/12/11---------------------------------------------|
-----------13-11-13-11---------------------------------|
-----------------------13-11-13-11---11-9-11-9---9~----|
-------------------------------------------------------|
-------------------------------------------------------|
COUPLET 3
e|----------------------------------------|--------|
B|----------------------------------------|--------|
G|-------------------44444444-------------|--------|
D|-66666666-22222222-44444444-44444444----|---4~---|
A|-66666666-22222222-22222222-44444444----|---4~---|
E|-44444444-00000000----------22222222----|---2~---|
...................................
REFRAIN
e|------------------------------------------------------|
B|------------------------------------------------------|
G|------------9-999999-4-444444-------------------------| 4x
D|-646-666666-9-999999-4-444444-4-44444-----------------|
A|-646-666666-7-777777-2-222222-4-44444-----------------|
E|-424-444444-------------------2-22222-----------------|
GUITARE 2
e|----------------|
B|----------------|
G|----------------|
D|--4-2-1---------|
A|--------4-2-1---|
E|--------------4-|
GUITARE 1
e|------------------------------------------------------|
B|------------------------------------------------------|
G|-------------------44444444---------------------------|
D|-66666666-22222222-44444444-44444444------------------|
A|-66666666-22222222-22222222-44444444------------------|
E|-44444444-00000000----------22222222------------------|
e|----|
B|----|
G|----|
D|-6~-|
A|-6~-|
E|-4~-|

One Comment

Leave a Reply

Ce site utilise Akismet pour réduire les indésirables. En savoir plus sur comment les données de vos commentaires sont utilisées.