Secondhand Serenade

Secondhand Serenade – It’s Not Over

Vidéo guitare et chant, tablature gratuite, accords, paroles de la chanson «It’s not over» de Secondhand Serenade.

Tablature, accords, paroles

Intro/Couplet:

Le riff est joué pendant toute la chanson, 
les accords s'y supperposent à partir du 2nd couplet

e|----0---0---0---0---0---0---0---0---|
B|---0-0-0-0-0-0-0-0-0-0-0-0-0-0-0-0--|
G|--9---9---4---4---6---6---2---2-----|
D|------------------------------------|  x2
A|------------------------------------|
E|------------------------------------|

Ce riff est joué juste avant le refrain

e|----0---0---0---0---0---0---0---0---0---0---|
B|---0-0-0-0-0-0-0-0-0-0-0-0-0-0-0-0-0-0-0-0--|
G|--9---9---4---4---6---6---2---2---2---2-----|
D|--------------------------------------------|
A|--------------------------------------------|
E|--------------------------------------------|

Couplet 1:
My tears run down like razorblades
And no, I'm not the one to blame
It's you or is it me?
And all the words we never say
Come out and now we're all ashamed
And there's no sense in playing games
When you've done all you can do


Refrain:
But now it's over, it's over, why is it over?
We had the chance to make it
Now it's over, it's over, it can't be over
I wish that I could take it back
But it's over


Couplet 2:
 E
I lose myself in all these fights
 B
I lose my sense of wrong and right
 C#m    A
I cry, I cry
    E                                  B
It's shaking from the pain that's in my head
                          C#m
I just wanna crawl into my bed
                         A
And throw away the life I led

But I won't let it die, but I won't let it die


Refrain:
            E          B               C#m
But now it's over, it's over, why is it over?
  A
We had the chance to make it
        E          B                 C#m
Now it's over, it's over, it can't be over
 A                                     F#m
I wish that I could take it back


Bridge:
F#m          A                  E
I'm falling apart, I'm falling apart

Don't say this won't last forever
F#m                A                         E
You're breaking my heart, you're breaking my heart
             B                  F#m  A
Don't tell me that we will never be together
        E
We could be, over and over
        F#m    A      B
We could be, forever

F#m          A                  E
I'm falling apart, I'm falling apart

Don't say this won't last forever
F#m (pause)        A (pause)                 E
You're breaking my heart, you're breaking my heart
             B                  F#m  A
Don't tell me that we will never be together
        E
We could be, over and over
        F#m    A      B
We could be, forever


Refrain/Outro:
        E              B                C#m
It's not over, it's not over, it's never over
 A
Unless you let it take you
        E              B              C#m
It's not over, it's not over, it's not over
 A
Unless you let it break you
        E
It's not over

e|----0---0---0---0---0---0---0---0-----|
B|---0-0-0-0-0-0-0-0-0-0-0-0-0-0-0-0----|
G|--9---9---9---9---9---9---9---9---9~--|
D|--------------------------------------|
A|--------------------------------------|
E|--------------------------------------|

One Comment

  • Artemillion dit :

    coucou
    juste une petite demande sur des tablatures de Ridan qui a des musiques vraiment sympa a jouer à la guitare. Merci d’avance;
    En tout cas sa fait presque un an que je lache plus se site vraiment super bien fait. Bonne continuation!

Leave a Reply

Ce site utilise Akismet pour réduire les indésirables. En savoir plus sur comment les données de vos commentaires sont utilisées.