Rolling Stones

Rolling Stones – Angie

Vidéo guitare et chant, tablature, accords, paroles de la chanson “Angie” des Rolling Stones.

Tablature : accords, paroles

Accords utilisés:
G	320003
G/B	022000
Am	x02210
C	x32010
Csus4	x33010
F	xx3211
Am7	x02010
E7	020100
Fsus4	xx3311
Gsus4	xx5533
Gsus4/B	330003
Dm	xx0231
Dsus2	xx0230
A5	xx22xx
E5	xxxx00
Am9	x02203
Dm9	xx0555
Dm7	xx0565



Intro:
            Am                            E7                         	    |
e|-----|-----0--0--0------3-0------------|---------0-------------0----------|
B|-----|-----1-----1------1-------1------|-------3---3--------3-------------|
G|-----|-----2-----2-----------2---------|-----4-------4------4-------4--0--|
D|-----|-----2---------2-------------2-2-|----------------------------------|
A|-12--|---------------------------------|----------------------------------|
E|-----|---------------------------------|-0--------------4-----------------|
   +

  Gsus4                Fsus4 F                     Csus4    C      Gsus4/B
e|------------3-------------------1-----|-------1---------------0-----------|
B|---------3-----3-------------------1--|----------------1------1-------1---|
G|------5-----------5-----3--2----------|----2--------------0--------------0|
D|-5-------------------5--3--3----------|-3-----------3-----2---------0-----|
A|--------------------------------------|----------3---------------2--------|
E|--------------------------------------|-----------------------------------|

  Am                                      E7
       Ang - gie,                              An  -  gie
e|----0-----------5--5--5--3------------|-----------0---0--------0----------|
B|----1-----------5--5--5--3------------|---------3---3-3--------3----------|
G|----------------------------5---------|-------4-------4------------X------|
D|-2------------------------------------|-----------------------------------|
A|-0---------2--------------------------|-----------------------------------|
E|--------------------------------------|-0---------------------------------|

 Gsus4           G    Fsus4 F     Cadd4          C  
     when will those clouds all disappear?________
e|----3----3----------------------------| 
B|----3----3----------------------------|
G|----5----5-----------3-----2----------|  
D|-5-------------0-----3-----3----------|
A|------------------------------------3-|
E|--------------------------------------|


Am      E7
Angie, Angie, 

Gsus4      G     Fsus4  F        Cadd4   C
when will those clouds all disappear? 

Am     E7 
Angie, Angie, 

Gsus4      G  Fsus4 F      Cadd4   C
where will it lead us from here? 



REFRAIN:
         G                                       Am      C
With no loving in our souls and no money in our coats 

           F             G
You can't say we're satisfied

    Am   Am7  E7
But Angie,    Angie,

G          F            Fsus4  F  C
you can't say we never tried 




Am7    Am    E7
Angie, you're beautiful, 

     G         F            Fsus4  F  Gsus4  C
but ain't it time we said good-bye? 

Am   Am7  E7     
Angie,    I still love you, 

     G    F                  Fsus4  F  Gsus4  C
remember all those nights we cried? 


REFRAIN:
C                       G              
All the dreams we held so close 

           Dm       Dsus2   Am   Am7
seemed to all go up in    smoke 

          F              C/G    G
Let me whisper in your ear: 

Am     E7      G 
Angie, Angie, 

                F           F   Fsus4  F  C
where will it lead us from here? 


(Solo de piano)



REFRAIN:

C              G
Oh, Angie, don't you weep, 

           Dm                Am       C
all your kisses still taste sweet 

             F                     G
I hate that sadness in your eyes 

      Am  A5  E7
But Angie, Angie, 

    G       F              Fsus4  F  C
ain't it time we said good-bye? 


Interlude: Am7    E7    G    Fsus4  F    Gsus4  C 


REFRAIN:
         G                         Dm              Am      C
With no loving in our souls and no money in our coats 

               F              G
You can't say we're satisfied


Pont:

    Dm                  E5    Am  Am7  Am9
But Angie, I still love you, baby 

Dm                            E5 Am  Am7   Am9 Am7
Ev'rywhere I look I see your eyes 

Dm              Dm9    Dm7       Am          G  C 
There ain't a woman that comes close to you 
         
         F                  G
Come on baby, dry your eyes 





    Am Am7 Am E5 E7  
But Angie,    Ang-ie, 

G        Fsus4 F         Fsus4  F   C  
ain't it good  to be alive? 


Am     G  E7 
Angie, An-gie, 

     G     Fsus4 F           F  Fsus4  F  Gsus4  C
they can't say  we never tried 

4 Comments

Leave a Reply

Ce site utilise Akismet pour réduire les indésirables. En savoir plus sur comment les données de vos commentaires sont utilisées.