Renaud

Renaud – Chanson pour Pierrot

Tablature Chanson pour pierrot de Renaud. Vidéo guitare et chant, partition gratuite, accords et paroles de la chanson.

Tablature, accords, paroles

Accords utilisés:
F#m  [244322]
Bm   [224432]
C#   [446664] 
E    [022100]


Intro

    F#m       Bm           F#m       Bm         
||----------------------|----------------------|
||-------2---------3----|-------2---------3----|
||-------2---------4----|-------2---------4----|
||-----4---------4------|-----4---------4------|
||------------2-------2-|------------2-------2-|
||--2-------2-----------|--2-------2-----------|


    F#m       Bm           F#m       C#
|----------------------|-----------------4----||
|-------2---------3----|-------2---------2----||
|-------2---------4----|-------2--------------||
|-----4---------4------|-----4---------3------||
|------------2-------2-|------------4-------4-||
|--2-------2-----------|--2-------2-----------||


Couplet

    F#m       Bm           F#m       Bm         
||----------------------|----------------------|
||-------2---------3----|-------2---------3----|
||-------2---------4----|-------2---------4----|
||-----4---------4------|-----4---------4------|
||------------2-------2-|------------2-------2-|
||--2-------2-----------|--2-------2-----------|
        (né)

    F#m       Bm           F#m       Bm         
||----------------------|----------------------|
||-------2---------3----|-------2---------3----|
||-------2---------4----|-------2---------4----|
||-----4---------4------|-----4---------4------|
||------------2-------2-|------------2-------2-|
||--2-------2-----------|--2-------2-----------|


   C#                      F#m       Bm         
|-------4--------------||----------------------|
|-------2--------------||-------2---------3----|
|----------------------||-------2---------4----|
|-----3----3-----------||-----4---------4------|
|------------4---------||------------2-------2-|
|--4-------------------||--2-------2-----------|
             Pier-rot mon gosse...

   E                       F#m                
|-------0--------------||------------|
|-------0--------------||-------2----|
|----------------------||-------2----|
|-----2----2-----------||-----4------|
|----------------------||----------4-|
|--0---------0---------||--2---------|



F#m                        Bm                           F#m
       T'es pas né dans la rue, t'es pas né dans l'ruisseau,
                 Bm                    F#m
Pas un enfant perdu pas un enfant d'salaud,
                       Bm                        F#m
Vu qu't'es né dans ma têt' et qu'tu vis dans ma peau
                      Bm                     C#
J'ai construit ta planète au fond de mon cerveau


Refrain
            F#m                      Bm
Pierrot mon gosse mon frangin mon poteau mon copain tu 
           Mi           Fa#m
m'tiens chaud	Pierrot


Depuis l'temps que j'te rêve, depuis l' temps que j't invente,
De pas te voir j'en crève, j'te sens dans mon ventre
Le jour où tu t'ramènes j'arrêt' de boire, promis
Au moins tout' une semaine, ce sera dur mais tant pis

Qu'tu sois fils de princesse, ou qu'tu sois fils de rien,
Tu s'ras fils de tendresse' tu s'ras pas orphelin
Et je connais pas ta mère et je la cherche en vain
Je connais qu'la misère et tout seul sur le ch'min

Dans un coin de ma tête y'a déjà ton trousseau
Un jean, un' mobylette, un' paire de santiagos
T'iras pas à l'école, j't apprendrai des gros mots
On jouera au football, on ira au bistrot

Tu t'lav'ras pas les pognes avant d'venir à table
Et tu m'trait'ras d'ivrogne quand j'piquerai ton cartable
J't'apprendrai mes chansons, tu les trouv'ras débiles
T'auras p't'êtr' bien raison mais j's'rai vexé quand même

Allez, viens mon Pierrot, tu s'ras l'chef de ma bande
J'te r'fil'rai mon couteau, j't'apprendrai la truande
Allez viens mon copain, j'tai trouvé une maman
Tous les trois ce s'ra bien, allez viens je t'attends

One Comment

  • anne-gaëlle dit :

    BOnjour et merci!

    Cette interprétation sensible, juste et pleine de coeur m’a beaucoup touchée.
    …Mes essaies ne la valent pas! continuez!

Leave a Reply

Ce site utilise Akismet pour réduire les indésirables. En savoir plus sur comment les données de vos commentaires sont utilisées.