Red Hot Chili Peppers

Red Hot Chili Peppers – Under the Bridge

Vidéo guitare et chant, tablature gratuite, accords, paroles de la chanson «Under the bridge» des Red Hot Chili Peppers.

Tablature : accords, paroles

  C                      E                    C
e|---------------------!---------------------!---------------------------|
b|(1)------1-----------!(0)------------------!-------------1-3-1---------|
g|-----0-----0---------!---------1-----------!---------0---------0-------|
d|---2---2-------------!-----2-----2-2-0-----!-----2---------------2/4-4-|
a|-3-----------2-0-----!---2---2---------3-0-!-2/3---3---3---------3/5-5-|
E|-----------------3-2-!-0-------------------!---------------------------|
E                     C                         E
e|---------------------!-------------------------!---------------------|
b|-0-------------------!-------------1-----------!---------------------|
g|---------1-----------!---------0-----0---------!---------1-----------|
d|-----2-----2-2-0-----!-----2-----2-------------!-----2-----2-2-0-----|
a|---2---2---------3-0-!-2/3---3---------2-0-----!---2---2---------3-0-|
E|-0-------------------!---------------------3-2-!-0-------------------|
C                            E 
e|---------------------------!-----------------------|
b|-------------1-3-1---------!-----------------------|
g|---------0---------0-------!---------1-----1-------|
d|-----2-----2---------2/4-4-!-----2-----2-----2-----|
a|-2/3---3-------------3/5-5-!---2---2-----2-----2/5-|
E|---------------------------!-0---------------------|
D            A        Bm       (F#m)   G               D         A                
e---------------------|-------------------------|------------------------------|
B-7----x-------5---x--|-------7----2-----3------|--------7----x----5-----------|
G-7----x-------6---x--|-------7----2-----4------|--------7----x----6-----------|
D-7----x-------7---x--|-7/9---7----4-----5------|--------7----x----7-----------|
A-5----x-------7---x--|-7/9--------4-----5------|--------5----x----7-----------|
E---------------------|-------------------------|------------------------------|
Sometimes I feel like I don't have a partner           Sometimes I feel like my
Bm     G             D      A             Bm   (F#m)  G         D       A
e--------------------|--------------------|---------------------|--------------|
B-7------3-----------|-7------5-----------|-7------2----3-------|-7----x--5----|
G-7------4-----------|-7------6-----------|-7------2----4-------|-7----x--6----|
D-9------5-----------|-7------7-----------|-9------4----5-------|-7----x--7----|
A-9------5-----------|-5------7-----------|-9------4----5-------|-5----x--7----|
E--------------------|--------------------|---------------------|--------------|
only friend is the   city I live in the city of angels    Lonely as I am
Bm     G            Dmaj7
e-------------------|------------------|
B-7------3----------|-7----------------|
G-7------4----------|-6----------------|
D-9------5----------|-7----------------|
A-9------5----------|-5----------------|
E-------------------|------------------|
together we cry                               
D       A                   Bm         (F#m)  G
e---------------------------|----------------------3h5p3---|
B-7---7---5---5----5--------|------7----7--2----3-------3--|
G-7---7---6---6----6h7p6--6-|------7----7--2----4-------4--|
D-7---7---7-------------7---|-7/9--7-9--7--4----5----------|
A-5---5---7------7----------|-7/9----9-----4----5----------|
E---------------------------|------------------------------|
Drive on her streets 'cause she's my companion        
D       A                   Bm           G
e---------------------------|-------------------3----------|
B-7---7---5---5----5--------|------7----7--3-------3-------|
G-7---7---6---6----6h7p6--6-|------7----7--4----------4----|
D-7---7---7-------------7---|-7/9--7-9--7--5---------------|
A-5---5---7------7----------|-7/9----9-----5---------------|
E---------------------------|------------------------------|
through her hills 'cause she knows who I am       She
D       A                    Bm         (F#m)  G
e----------------------------|----------------------3h5p3--|
B-7---7-------5-5---5--------|------7----7--2----3-------3-|
G-7---7-------6-6---6h7p6--6-|------7----7--2----4-------4-|
D-7---7---7--------------7---|-7/9--7-9--7--4----5---------|
A-5---5---7-------7----------|-7/9----9-----4----5---------|
E----------------------------|-----------------------------|
seems my good deeds and she    kisses me windy
D       A               Bm        G
e-----------------------|----------------3----|------------|
B-7---7-------5----5----|-------7---3-------3-|-7----------|
G-7---7------------6--6-|-------7---4---------|-6----------|
D-7---7---7-----------7-|-7/9---7---5---------|-7----------|
A-5---5---7------7------|-7/9-------5---------|-5----------|
E-----------------------|---------------------|------------|
I never worry  now that is a lie
Refrain :
Em    D               A             Em
e-----------------------|-9--9--9--9----7-----7---7---x-x--|
B---8-----7--7----7-----|-10-10-10-10---8-----8---8---x-x--|
G---9-----7--7----7-----|-9--9--9--9----9-----9---9---x-x--|
D---9-----7--7----7-----|---------------9-----9---9---x-x--|
A---7-----5--5----5-----|---------------7-----7---7---x-x--|
E-----------------------|----------------------------------|
I don't ever want to feel    like I did that day
Em        D              A             Em
e------------------------|-9--9--9--9----7-----7---7---x-x-|
B-x-x-8-----7--7----7----|-10-10-10-10---8-----8---8---x-x-|
G-x-x-9-----7--7----7----|-9--9--9--9----9-----9---9---x-x-|
D-x-x-9-----7--7----7----|---------------9-----9---9---x-x-|
A-x-x-7-----5--5----5----|---------------7-----7---7---x-x-|
E------------------------|---------------------------------|
Take me to the place I love       take  me  all  the  way
Em        D              A             Em
e------------------------|-9--9--9--9----7-----7---7---x-x-|
B-x-x-8-----7--7----7----|-10-10-10-10---8-----8---8---x-x-|
G-x-x-9-----7--7----7----|-9--9--9--9----9-----9---9---x-x-|
D-x-x-9-----7--7----7----|---------------9-----9---9---x-x-|
A-x-x-7-----5--5----5----|---------------7-----7---7---x-x-|
E------------------------|---------------------------------|
I don't ever want to feel         like I did that day
Em        D              A             Em
e------------------------|-9--9--9--9----7-----7---7---x-x-|
B-x-x-8-----7--7----7----|-10-10-10-10---8-----8---8---x-x-|
G-x-x-9-----7--7----7----|-9--9--9--9----9-----9---9---x-x-|
D-x-x-9-----7--7----7----|---------------9-----9---9---x-x-|
A-x-x-7-----5--5----5----|---------------7-----7---7---x-x-|
E------------------------|---------------------------------|
Take me to the place I love       take  me  all  the  way
D         A                   Bm         (F#m)  G      
e-----------------------------|---------------------3h5p3--|
B-7---7-x-x-5---5----5h7p5----|------7----7--2----3------3-|
G-7---7-x-x-6---6----6------6-|------7----7--2----4------4-|
D-7---7-x-x-7-------------7---|-7/9--7-9--7--4----5--------|
A-5---5-x-x-7------7----------|-7/9----9-----4----5--------|
E-----------------------------|----------------------------|
Yeeeeeeeeeeeeah               	Yeeeeeeeah
D         A                   Bm         (F#m)  G
e-----------------------------|-------------------3--------|
B-7---7-x-x-5---5----5--------|------7----7--2-------3-----|
G-7---7-x-x-6---6----6h7h6--6-|------7----7--2----------4--|
D-7---7-x-x-7-------------7---|-7/9--7-9--7--4-------------|
A-5---5-x-x-7------7----------|-7/9----9-----4-------------|
E-----------------------------|----------------------------|

4 Comments

Leave a Reply

Ce site utilise Akismet pour réduire les indésirables. En savoir plus sur comment les données de vos commentaires sont utilisées.