Red Hot Chili Peppers

Red Hot Chili Peppers – Can’t stop

Vidéo guitare et chant, tablature gratuite, accords, paroles de la chanson “Can’t stop” des Red Hot Chili Peppers.

Tablature : accords, paroles

Intro
------------------------------------|---------------------------------------
------------------------------------|---------------------------------------
------------------------------------|---------------------------------------
------------------------------------|-----------------------------------------
-5-7^--5-7^--5-7^----5-7^--5-7------|-----5-7^--5-7^--5-7^----5-7^--5-7----- 
------------------------------------|---------------------------------------
 
------------------------------------|---------------------------------------
------------------------------------|---------------------------------------
------------------------------------|---------------------------------------
------------------------------------|---------------------------------------
-5-7^--5-7b-(7)--5-7^--5----7--5--7-|-----5-7^--5-7^--5-7^----5-7^--5-7----- 
-------------------------7----------|---------------------------------------

------------------------------------|---------------------------------------
------------------------------------|---------------------------------------
------------------------------------|---------------------------------------
------------------------------------|-----------------------------------------
-5-7^--5-7^--5-7^----5-7^--5-7------|-----5-7^--5-7^--5-7^----5-7^--5-7----- 
------------------------------------|---------------------------------------
E7(no3rd)                            Dsus2
------------------------------------|---------------------------------------
------------------------------------|---------------------------------------
--------7-9--------7-x-9------------|----7-9--------7-x-9-----7-------------
------------------------------------|--0-------0-0-0----------x--0--0-------
---7-7-------7-7-7-------7-7-7------|-------------------------0-------------
------------------------------------|-----------------------------------------
Bm(add4)                             Cadd9
------------------------------------|---------------------------------------
------------------------------------|---------------------------------------
------7--9---------7--x--9--7-------|-----7--9-----------7--x--9-----9------
------x------------x--x-----x-------|-----x--------------x--x--------x------
------x------------x--x-----x-------|-----x--------------x--x--------x------
---7--7-----7-7-7--7--x-----7--7--7-|--8--8-----8--8--8--8--x--------8--8---


Em 
Can't stop addicted to the shindig 
D 
Chop top he says I'm gonna win big 
B 
Choose not a life of imitation 
C 
Distant cousin to the reservation 
Em 
Defunct the pistol that you pay for 
D 
This punk the feeling that you stay for 
B 
In time I want to be your best friend 
C 
Eastside love is living on the westend 
 
Knocked out but boy you better come to 
Don't die you know the truth as some do 
Go write your message on the pavement 
Burn so bright I wonder what the wave meant 
White heat is screaming in the jungle 
Complete the motion if you stumble 
Go ask the dust for any answers 
Come back strong with 50 belly dancers 
 
     G 
The world I love 
     D 
The tears I've dropped 
   Bm 
To be part of 
     C 
the wave can't stop 
G           D        Bm      C 
Ever wonder if it's all for you  
     G 
The world I love 
      D 
The trains I hop 
   Bm 
To be part of 
     C 
The wave can't stop 
 G                 D         Bm-C 
Come and tell me when it's time to 
 
 
Sweetheart is bleeding in the snowcone 
So smart she's leading me to ozone 
Music the great communicator 
Use two sticks to make it in the nature 
I'll get you into penetration 
The gender of a generation 
The birth of every other nation 
Worth your weight the gold of meditation 
This chapter's going to be a close one 
Smoke rings I know you're going to blow one 
All on a spaceship persevering 
Use my hands for everything but steering 
Can't stop the spirits when they need you 
Mop tops are happy when they feed you 
Jay butterfly is in the treetop 
Birds that blow the meaning into bebop

3 Comments

Leave a Reply

Ce site utilise Akismet pour réduire les indésirables. En savoir plus sur comment les données de vos commentaires sont utilisées.