Radiohead

Radiohead – Paranoid Android

Tablature gratuite de la chanson “Paranoid Android” de Radiohead.

Clip vidéo

Tablature, accords:

INTRO :
E||---------------------------------|-------------------------------|
B||-------8---------------8---------|-------8-----------------------|
G||-----------8-----------8---8-----|-----------8---------8---8-----|
D||---------------0---0-----0-------|-----------------0-------0-----|
A||-----x---------0---------x-----0-|--8--8---------0---0---------0-|
E||--8------8---8---6---6---6---6---|--x------x-------------6---6-0-|
[|--------------------------------|----------------------------0-------| 
[|--3----3--------------3---------|--3------3---3--3~-------3--3---3---|
[|-----------3---3------3---3-----|--3-------------2~----0--0--0---0---|
[|--0--------------0----------0-0-|--2----2---2----------2--2--2---2-0-|
[|-----------------0--0---1---1---|----------------------------------0-|
[|--3--3---3---3------------------|------------------------------------|
[|---------------------------------|------------------------------|
[|-------3-----------3---3---3---3-|--3------3---3-3~--3-3--3-----|
[|-----------3---3---3-------3---3-|--3----3---3---2~--0-0--0-----|
[|-----0---------------------------|--2--------2---2~----2--2--0--|
[|-----------------0---0---1---1---|---------------------------0--|
[|--3------3---3-------------------|------------------------------|
COUPLET 1 :
Please could  you  stop     the    noise   I'm  tryin'   
[|---------------------------------|-------------------------------|
[|-------8---------------8---------|-------8-----------------------|
[|-----------8-----------8---8-----|-----------8---------8---8-----|
[|---------------0---0-----0-------|-----------------0-------0-----|
[|-----x---------0---------x-----0-|--8--8---------0---0---------0-|
[|--8------8---8---6---6---6---6---|--x------x-------------6---6-0-|
to     get    some   rest
[|----------------------------------|---------------------------------|
[|--3-----3---------------3---------|------3---3—-3---3--3—-3---3-----|
[|------------3---3-------3---3-----|-------------2---2--2—-2---2-----|
[|--0---------------0-----------0-0-|-------------2---2--2—-2---2—----|
[|------------------0--0----1---1---|-----------------------------x-0-|
[|--3---3---3---3-------------------|-0--0---0------------------------|
[|---------------------------------|----------------------------|
[|-------3-----------3---3---3---3-|-------3---3-3---3-3--3-----|
[|-----------3---3---3-------3---3-|-------------2---0-0--0-----|
[|-----0---------------------------|-------------2-----2--2--0--|
[|-----------------0---0---1---1---|-------------------------0--|
[|--3------3---3-------------------|--0--0---0------------------|
From     all     the      unborn    chicken         voices
[|---------------------------------|-------------------------------|
[|-------8---------------8---------|-------8-----------------------|
[|-----------8-----------8---8-----|-----------8---------8---8-----|
[|---------------0---0-----0-------|-----------------0-------0-----|
[|-----x---------0---------------0-|--8--8---------0---0---------0-|
[|--8------8---8---6---6---6---6---|--x------x-------------6---6-0-|
in      my        head
[|--------------------------------|------------------------------------|
[|--3----3--------------3---------|--------3---3--3—--3--3--3--3-------|
[|-----------3---3------3---3-----|---------------2—--2--2--2--2-------|
[|--0--------------0----------0-0-|---------------2--—2--2--2--2-------|
[|-----------------0--0---1---1---|--------------------------------x-0-|
[|--3--3---3---3------------------|--0---0---0-------------------------|
REFRAIN :
What's         that?
[|--------0-------------------0--------|---------0-------0----0--------|
[|-------------3------------------3----|-----3------3-------3-----3-3--|
[|-----3----3--------3---3-------------|---------------2------------2--|
[|----------------0---------0---0---0--|-------------------------------|
[|-------------------------------------|-----3-----------3-------------|
[|--3----------------------------------|--1----------------------------|
What's
[|---------0--------------0--------|--------0---------------0--------|
[|-------------3--3-----3----------|------------3---------------3-3--|
[|----------------1---1-------1----|----------------3---3------------|
[|------0--------------------------|------0-------0-------0----------|
[|---------------------------------|----------------------0----------|
[|--0---------------------------2--|--3------------------------------|
that?
[|---------0--------------0-------|---------0---------------0-------|
[|-------------3-------3------3---|-------------3---------3-----3---|
[|-----------2----2---------------|----------------1----1-----------|
[|------0-------------------------|------2--------------------------|
[|--------------------------------|---------------------------------|
[|--1-----------------------------|--0------------------------------|
COUPLET 2 :
When I         am   king
Gtr.1                                                              
[|-------0-------------0-----------|---------------------------------|
[|-----3-----3---------------------|-------8---------------8---------|
[|--------------1----1---0---------|-----------8-----------8---8-----|
[|---------------------------------|---------------0---0-----0-------|
[|---------------------------------|-----x---------0---------------0-|
[|--0----------------------10---9--|--8------8---8---6---6---6---6---|
you   will  be    first     against        the       wall
[|-------------------------------|--------------------------------|
[|-------8-----------------------|--3----3--------------3---------|
[|-----------8---------8---8-----|-----------3---3------3---3-----|
[|-----------------0-------0-----|--0--------------0----------0-0-|
[|--8--8---------0---0---------0-|-----------------0--0---1---1---|
[|--x------x-------------6---6-0-|--3--3---3---3------------------|
[|-----------------------------0------|--------------------------------|
[|--3------3----3---3~------3--3--3---|------3-----------3---3---3---3-|
[|--3---------------2~---0--0--0--0---|----------3---3---3-------3---3-|
[|--2---2-----2----------2--2--2--2-0-|----0---------------------------|
[|----------------------------------0-|----------------0---0---1---1---|
[|------------------------------------|-3------3---3-------------------|
With your  opinion
[|----------------------------|---------------------------------|
[|--3----3---3-3~--3-3--3-----|-------8---------------8---------|
[|--3--3---3---2~--0-0--0-----|-----------8-----------8---8-----|
[|--2------2---2~----2--2--0--|---------------0---0-----0-------|
[|-------------------------0--|-----x---------0---------------0-|
[|----------------------------|--8------8---8---6---6---6---6---|
which  is      of        no     consequence
[|--------------------------------|--------------------------------|
[|-------8------------------------|--3----3--------------3---------|
[|-----------8----------8---8-----|-----------3---3------3---3-----|
[|------------------0-------0-----|--0--------------0----------0-0-|
[|--8--8----------0---0---------0-|-----------------0--0---1---1---|
[|--x------x--------------6---6-0-|--3--3---3---3------------------|
at                all                    What's
[|---------------------------0-------|--------------------------------|
[|--3------3----3--3~-----3--3--3----|--------------------------------|
[|--3--------------2~---0-0--0--0----|--------------------------------|
[|--2---2----2----------2-2--2--2--0-|--------------------------------|
[|---------------------------------0-|--------------------------------|
[|-----------------------------------|--------------------------------|
[|-----------------------------------|--------0---------1h0-----------|
[|-----------------------------------|------3-----3-----------3-------|
[|-----------------------------------|--3-----------3--------------3--|
[|-----------------------------------|------0---------------0---0-----|
[|-----------------------------------|--------------------------------|
[|-----------------------------------|--------------------------------|
that?
[|--------0---------1h0-----------|--------0---------1h0-----------|
[|------3-----3-----------3-------|------3-----3-----------3-------|
[|--2-------2---2-------2------2--|--1-------1---1h0------------1--|
[|--------------------------0-----|--------------------------------|
[|--------------------------------|--------------------------------|
[|--------------------------------|--------------------------------|
What's    that?
[|--------0---------1h0------------|--------0-------1h0------------|
[|------3-----3------------3-------|------3----3----------3---3----|
[|--3-------3---3-------3-------3--|--2----------2------2-------2--|
[|---------------------------0-----|-------------------------------|
[|---------------------------------|-------------------------------|
[|---------------------------------|-------------------------------|
[|-------0--------1-0-------0-0-|-------0---0------0--0--------|
[|-----3----3----------3--------|---3----------3----------3----|
[|--1---------1----------1------|-----1----------1----------1--|
[|------------------------------|------------------------------|
[|------------------------------|------------------------------|
[|------------------------------|------------------------------|
[|--------------------------------|---------------------------------|
[|--------------------------------|---------------------------------|
[|--------------------------------|---------------------------------|
[|--------------------------------|------------------------(5)------|
[|---------3--------------3-3-5-5-|---------3---------5-3---5-3---3-|
[|--5--5-5---5-5-4--4-4-4---------|--5--5-5---5-5-4-4-----5-----5---|
|-------------------------------|---------------------------------|
|-------------------------------|---------------------------------|
|-------------------------------|-------------------------------0-|
|-------------------------------|-------------------------------0-|
|---------3--------------3--5-5-|---------3---------5-3---5-3-----|
|--5--5-5---5-5-4--4-4-4--------|--5--5-5---5-5-4-4-----5-----5---|
7/8 fois
|---------------------------|---------------------------|
|---5----5-5-6--6--6-6------|--5--5-5---6--6--6-6-6-----|
|---5----5-5-5--5--5-5--7-7-|--5--5-5---5--5--5-5-5-7-7-|
|---5--5---5-5--6--6-6--8-8-|--5------5-5--6--6-6-6-8-8-|
|---3--3-----0--x--x-x--x-x-|--3------5----x----x-x-x-x-|
|---------------4--4-4--6-6-|--------------4----4-4-6-6-|
Amb-
|----------------------------|-------------------------------|
|--5--5-5-5-6---6--6-6-6-----|--5--5-5-5-6-----5-4-x-3--3----|
|--5--5-5-5-5---5--5-5-5-7---|--5--5-5-5-5-----5-4-x-3--3----|
|--5--5---5-----6--6-6-6-8---|--5--5---5-------5-4-x-3--3----|
|--3--3---x---0-x--x-x-x-x---|--3------x-----0-3-2-x-1--1----|
|--3------------4--4-4-4-6-6-|-------------0--------------4--|
-ition makes you look pretty ugly
[|--------------------------------|----------------------------------|
[|--------------------------------|----------------------------------|
[|--------------------------------|----------------------------------|
[|--------------------------------|----------------------------------|
[|---------3--------------3-3-5-5-|----------3---------------3-3-5-5-|
[|--5--5-5---5-5-4--4-4-4---------|--5---5-5---5-5-4---4-4-4---------|
Kicking Squealing Gucci little piggy
[|--------------------------------|----------------------------------|
[|--------------------------------|----------------------------------|
[|--------------------------------|----------------------------------|
[|--------------------------------|----------------------------------|
[|---------3--------------3-3-5-5-|----------3---------------3-3-5-5-|
[|--5--5-5---5-5-4--4-4-4---------|--5---5-5---5-5-4---4-4-4---------|
|---------------------------|---------------------------|
|---5----5-5-6--6--6-6------|--5--5-5---6--6--6-6-6-----|
|---5----5-5-5--5--5-5--7-7-|--5--5-5---5--5--5-5-5-7-7-|
|---5--5---5-5--6--6-6--8-8-|--5------5-5--6--6-6-6-8-8-|
|---3--3-----0--x--x-x--x-x-|--3------5----x----x-x-x-x-|
|---------------4--4-4--6-6-|--------------4----4-4-6-6-|
|----------------------------|-------------------------------|
|--5--5-5-5-6---6--6-6-6-----|--5--5-5-5-6-----5-4-x-3--3----|
|--5--5-5-5-5---5--5-5-5-7---|--5--5-5-5-5-----5-4-x-3--3----|
|--5--5---5-----6--6-6-6-8---|--5--5---5-------5-4-x-3--3----|
|--3--3---x---0-x--x-x-x-x---|--3------x-----0-3-2-x-1--1----|
|--3------------4--4-4-4-6-6-|-------------0--------------4--|
You don't remember you don't remember Why don't you remember my name
[|--------------------------------|----------------------------------|
[|--------------------------------|----------------------------------|
[|--------------------------------|----------------------------------|
[|--------------------------------|----------------------------------|
[|---------3--------------3-3-5-5-|----------3---------------3-3-5-5-|
[|--5--5-5---5-5-4--4-4-4---------|--5---5-5---5-5-4---4-4-4---------|
Off with his head man Off with his head man Why won't he remember my name I guess he 
[|---------------------------------------|-----------------------------|
[|---------------------------------------|-----------------------------|
[|---------------------------------------|-----------------------------|
[|---------------------------------------|-----------------------------|
[|------------3------------------3-3-5-5-|-------3----------------3---5|
[|5----5---5-----5--5--4---4-4-4---------|5--5-5---5-5-4----4-4-4------|
Guitar Solo
Interlude :
Ahhhhhhhhhhhhhhhhh                             Ahhhhhhh
|---------3--3-3-------3----3-|--------3------------0----0-|
|---------4--4-4-------3--3-3-|-----3--3------------2----2-|
|---------5--5-5-------0--0---|-----0--0----0-------2--2---|
|---------5--5-5-------0--0---|-----0--0--0------2--2--2---|
|---3--3--3--3-3-2--2--2------|--1-----1------0--0---------|
|-----------------------------|----------------------------|
Ahhhhhhhhhhhhhhhhhhhhhh        Ahhhhhhhhhhhhhhhhhhhhhhh
|--------1------------0----0-|--------1----1------1-1-1----|
|--3-----3------------2--2-3-|--3-----3----3------3-3-3-x--|
|--2--2--2--2-0-------2--2-2-|--2--2--2--2-2------2-2-2----|
|--0--0--0--0-0----2--2--2---|--0--0--0--------------------|
|---------------0--0--0------|---------------3--3----------|
|----------------------------|-----------------------------|
Ahhhhhhhhhhhhhhhhhhhh          Ahhhhhhhhhhhhhhhhhhhhhhhh
|--------1--------------1-----|--------3--------------------|
|--------3------------1-1---0-|--------3------------1-1-1---|
|--------3---x--------2-2-x---|--------3---3--------2-2-2---|
|--------3--------3-3-3---x---|--------5---5--------3-3-3---|
|--1--1--------0--0-0---------|--5--5--5--------3-3-3-3-3-0-|
|-----------------------------|--3--3--3-----1--1-1---------|
|-------------------------0-0-|-------0-0--0-0--------0-------|
|--------0--0-0-0--0-0-0--0-0-|-----2-2-2--2-2-3--3-3-2--x----|
|--------1--1-1-2--2-2-1--1-1-|-----2-2-2--2-2-2--2-2-2--x-0--|
|--------2--2-2-2--2-2-2--2-2-|-----2-2-2--2-2-2--2-2-2--x-0--|
|--------2--2-2-2--2-2-2--2-2-|--0--0---0--0-0-0--0-0-0----0--|
|--0--0--0--0-0-0--0-0-0--0-0-|-------------------------------|
Rain         down                  Rain   down  come on
|---------3--3-3-------3----3-|--------3------------0----0-|
|---------4--4-4-------3--3-3-|-----3--3------------2----2-|
|---------5--5-5-------0--0---|-----0--0----0-------2--2---|
|---------5--5-5-------0--0---|-----0--0--0------2--2--2---|
|---3--3--3--3-3-2--2--2------|--1-----1------0--0---------|
|-----------------------------|----------------------------|
Rain         down     on        me
|--------1------------0----0-|--------1----1------1-1-1----|
|--3-----3------------2--2-3-|--3-----3----3------3-3-3-x--|
|--2--2--2--2-0-------2--2-2-|--2--2--2--2-2------2-2-2----|
|--0--0--0--0-0----2--2--2---|--0--0--0--------------------|
|---------------0--0--0------|---------------3--3----------|
|----------------------------|-----------------------------|
From a great   height          from a great
|--------1--------------1-----|--------3--------------------|
|--------3------------1-1---0-|--------3------------1-1-1---|
|--------3---x--------2-2-x---|--------3---3--------2-2-2---|
|--------3--------3-3-3---x---|--------5---5--------3-3-3---|
|--1--1--------0--0-0---------|--5--5--5--------3-3-3-3-3-0-|
|-----------------------------|--3--3--3-----1--1-1---------|
height                        height
|-------------------------0-0-|-------0-0--0-0--------0-------|
|--------0--0-0-0--0-0-0--0-0-|-----2-2-2--2-2-3--3-3-2--x----|
|--------1--1-1-2--2-2-1--1-1-|-----2-2-2--2-2-2--2-2-2--x-0--|
|--------2--2-2-2--2-2-2--2-2-|-----2-2-2--2-2-2--2-2-2--x-0--|
|--------2--2-2-2--2-2-2--2-2-|--0--0---0--0-0-0--0-0-0----0--|
|--0--0--0--0-0-0--0-0-0--0-0-|-------------------------------|
Rain         down                  Rain   down  come on
|---------3--3-3-------3----3-|--------3------------0----0-|
|---------4--4-4-------3--3-3-|-----3--3------------2----2-|
|---------5--5-5-------0--0---|-----0--0----0-------2--2---|
|---------5--5-5-------0--0---|-----0--0--0------2--2--2---|
|---3--3--3--3-3-2--2--2------|--1-----1------0--0---------|
|-----------------------------|----------------------------|
Rain         down     on        me    
|--------1------------0----0-|--------1----1------1-1-1----|
|--3-----3------------2--2-3-|--3-----3----3------3-3-3-x--|
|--2--2--2--2-0-------2--2-2-|--2--2--2--2-2------2-2-2----|
|--0--0--0--0-0----2--2--2---|--0--0--0--------------------|
|---------------0--0--0------|---------------3--3----------|
|----------------------------|-----------------------------|
From a great   height          from a great
|--------1--------------1-----|--------3--------------------|
|--------3------------1-1---0-|--------3------------1-1-1---|
|--------3---x--------2-2-x---|--------3---3--------2-2-2---|
|--------3--------3-3-3---x---|--------5---5--------3-3-3---|
|--1--1--------0--0-0---------|--5--5--5--------3-3-3-3-3-0-|
|-----------------------------|--3--3--3-----1--1-1---------|
height                        height  
|-------------------------0-0-|-------0-0--0-0--------0-------|
|--------0--0-0-0--0-0-0--0-0-|-----2-2-2--2-2-3--3-3-2--x----|
|--------1--1-1-2--2-2-1--1-1-|-----2-2-2--2-2-2--2-2-2--x-0--|
|--------2--2-2-2--2-2-2--2-2-|-----2-2-2--2-2-2--2-2-2--x-0--|
|--------2--2-2-2--2-2-2--2-2-|--0--0---0--0-0-0--0-0-0----0--|
|--0--0--0--0-0-0--0-0-0--0-0-|-------------------------------|
That's it sir    you're leaving  the crackle  of pigskin 
|---------3--3-3-------3----3-|--------3------------0----0-|
|---------4--4-4-------3--3-3-|-----3--3------------2----2-|
|---------5--5-5-------0--0---|-----0--0----0-------2--2---|
|---------5--5-5-------0--0---|-----0--0--0------2--2--2---|
|---3--3--3--3-3-2--2--2------|--1-----1------0--0---------|
|-----------------------------|----------------------------|
The dust and the screaming   The yuppies networking ah
|--------1------------0----0-|--------1----1------1-1-1----|
|--3-----3------------2--2-3-|--3-----3----3------3-3-3-x--|
|--2--2--2--2-0-------2--2-2-|--2--2--2--2-2------2-2-2----|
|--0--0--0--0-0----2--2--2---|--0--0--0--------------------|
|---------------0--0--0------|---------------3--3----------|
|----------------------------|-----------------------------|
The panic    The vomit         The panic   The vomit
|--------1--------------1-----|--------3--------------------|
|--------3------------1-1---0-|--------3------------1-1-1---|
|--------3---x--------2-2-x---|--------3---3--------2-2-2---|
|--------3--------3-3-3---x---|--------5---5--------3-3-3---|
|--1--1--------0--0-0---------|--5--5--5--------3-3-3-3-3-0-|
|-----------------------------|--3--3--3-----1--1-1---------|
God loves his children         God loves His children
|-------------------------0-0-|-----------------------------|
|--------0--0-0-0--0-0-0--0-0-|-------0---0-0-0--0-0-0--0-0-|
|--------1--1-1-2--2-2-1--1-1-|-------1---1-1-2--2-2-1--1-1-|
|--------2--2-2-2--2-2-2--2-2-|-------2---2-2-2--2-2-2--2-2-|
|--------2--2-2-2--2-2-2--2-2-|-------2---2-2-2--2-2-2--2-2-|
|--0--0--0--0-0-0--0-0-0--0-0-|--0--0-0---0-0-0--0-0-0--0-0-|
Yeah
[|--------------------------------|--------------------------------|
[|--------------------------------|--------------------------------|
[|--------------------------------|--------------------------------|
[|--------------------------------|--------------------------------|
[|---------3--------------3-3-5-5-|--------------------------------|
[|--5--5-5---5-5-4--4-4-4---------|--------------------------------|
Outro Solo 
[|--10-----------------------------------|
[|-------------------10--------10--------|
[|-----8br~----------10--------10--------|
[|----------------------8br--------------|
[|--------------------------------8------|
[|---------------------------------------|

2 Comments

Leave a Reply

Ce site utilise Akismet pour réduire les indésirables. En savoir plus sur comment les données de vos commentaires sont utilisées.