Police

Police – Every breath you take

Vidéo guitare et chant, tablature gratuite, accords, paroles de la chanson «Every breath you take» de Police.

Tablature, accords et paroles

Capo 2ème case
Ab                   Ab
e|--------------------|--------------------|
B|----------0---------|----------0---------|
G|-----2-------2-----2|-----2-------2-----0|
D|---0---0--------0---|---0---0--------0---|
A|--------------------|--------------------|
E|-3------------------|-3------------------|
Fm                        Fm
e|--------------------|--------------------|
B|--------------------|--------------------|
G|----------0---------|----------0---------|
D|-------4------4----4|-------4------4----4|
A|----2----2------2---|----2----2------2---|	
E|-0------------------|-0------------------|               
Db                        Eb 
E|--------------------|-------0------------|
B|------3----1--------|------------3------0|
G|----0----0----0----0|----2----2-----2----|
D|--------------------|-0---------------0--|
A|-3--------------3---|--------------------|
E|--------------------|--------------------|
Ab                        Ab   
E|--------------------|--------------------|
B|----------0---------|----------0---------|
G|-----2-------2-----2|-----2-------2-----0|
D|---0---0--------0---|---0---0--------0---|
A|--------------------|--------------------|
E|-3------------------|-3------------------| 
Every breath you 
Ab                         Ab
E|--------------------|--------------------|
B|----------0---------|----------0---------|
G|-----2-------2-----2|-----2-------2-----0|
D|---0---0--------0---|---0---0--------0---|
A|--------------------|--------------------|
E|-3------------------|-3------------------|
take                       Every move you 
Fm                         Fm
e|--------------------|--------------------|
B|--------------------|--------------------|
G|----------0---------|----------0---------|
D|-------4------4----4|-------4------4----4|
A|----2----2------2---|----2----2------2---|	
E|-0------------------|-0------------------|               
make                     Every bond you break  
Db                         Eb7sus4
E|--------------------|-------0------------|
B|------3----1--------|------------3------0|
G|----0----0----0----0|----2----2-----2----|
D|--------------------|-0---------------0--|
A|-3--------------3---|--------------------|
E|--------------------|--------------------|
Every step you take  I'll be watching you
Fm                   Fm       Eb7sus4
e|--------------------|--------------------|
B|--------------------|--------------------|
G|----------0---------|----------0---------|
D|-------4------4----4|-------4------4----4|
A|----2----2------2---|----2----2------2---|	
E|-0------------------|-0------------------|               
Every  single 
Ab                         Ab
E|--------------------|--------------------|
B|----------0---------|----------0---------|
G|-----2-------2-----2|-----2-------2-----0|
D|---0---0--------0---|---0---0--------0---|
A|--------------------|--------------------|
E|-3------------------|-3------------------|
Day                         Every  word  you 
Fm                        Fm              
e|--------------------|--------------------|
B|--------------------|--------------------|
G|----------0---------|----------0---------|
D|-------4------4----4|-------4------4----4|
A|----2----2------2---|----2----2------2---|	
E|-0------------------|-0------------------|               
say                        Every game you play
Db                         Eb          Eb7sus4 
E|--------------------|-------0------------|
B|------3----1--------|------------3------0|
G|----0----0----0----0|----2----2-----2----|
D|--------------------|-0---------------0--|
A|-3--------------3---|--------------------|
E|--------------------|--------------------|
Every night you stay  I’ll be watching you
REFRAIN:
Ab                         Ab      
E|--------------------|--------------------|
B|----------0---------|----------0---------|
G|-----2-------2-----2|-----2-------2-----0|
D|---0---0--------0---|---0---0--------0---|
A|--------------------|--------------------|
E|-3------------------|-3------------------|
O can't you see
Db                   Db/Cb           Bbm7
E|--------------------|---------------------|
B|------3----1--------|------3----1---------|
G|----0----0----0----0|----0----0----0-----0|     
D|--------------------|---------------------|            
A|-3--------------3---|-3--------------3----|
E|--------------------|---------------------|
You belong to me
Ab                         Ab
E|--------------------|--------------------|
B|----------0---------|----------0---------|
G|-----2-------2-----2|-----2-------2-----0|
D|---0---0--------0---|---0---0--------0---|
A|--------------------|--------------------|
E|-3------------------|-3------------------|
How my poor heart 
Bb7                  Bb7
e|---------------------|--------------------|
B|-------------2-------|------------2-------|
G|-------4--------4---4|-------4------4----4|
D|----2-----2-------2--|----2----2-------2--|
A|-0-------------------|--0-----------------|	
E|---------------------|--------------------|    
aches                     with every step you 
Eb                             Eb7sus4
E|------0--------------|-------0------------|
B|-----------3-------0-|------------3------0|
G|---2----2-----2------|----2----2-----2----|
D|-0--------------0----|-0---------------0--|
A|---------------------|--------------------|
E|---------------------|--------------------|
take                        Every move you 
Ab                   Ab 
E|--------------------|--------------------|
B|----------0---------|----------0---------|
G|-----2-------2-----2|-----2-------2-----0|
D|---0---0--------0---|---0---0--------0---|
A|--------------------|--------------------|
E|-3------------------|-3------------------|
make                   Every vow you break
Fm                         Fm          
e|--------------------|--------------------|
B|--------------------|--------------------|
G|----------0---------|----------0---------|
D|-------4------4----4|-------4------4----4|
A|----2----2------2---|----2----2------2---|	
E|-0------------------|-0------------------|    
Every smile you fake
Db                         Eb           Eb7sus4                      
E|--------------------|-------0------------|
B|------3----1--------|------------3------0|
G|----0----0----0----0|----2----2-----2----|
D|--------------------|-0---------------0--|
A|-3--------------3---|--------------------|
E|--------------------|--------------------|
Every claim you stake  I'll be watching you
Fm                        Fm
e|--------------------|--------------------|
B|--------------------|--------------------|
G|----------0---------|----------0---------|
D|-------4------4----4|-------4------4----4|
A|----2----2------2---|----2----2------2---|	
E|-0------------------|-0------------------|
E 
e|----------------8----|--------7---------5|
B|---------------------|-------------------|
G|---------------------|-------------------|
D|---------------------|-------------------|
A|---------------------|-------------------|	
E|---------------------|-------------------|
Since you've gone  I been lost  without a trace
F#
e|1-------------10------|----8------7-------|
B|1---------------------|-------------------|
G|2---------------------|-------------------|
D|3---------------------|-------------------|
A|3---------------------|-------------------|	
E|1---------------------|-------------------|
I dream at night   I can only  see your face 
E
e|-------------8-------|---7---------5-----|
B|---------------------|-------------------|
G|---------------------|-------------------|
D|---------------------|-------------------|
A|---------------------|-------------------|	
E|---------------------|-------------------|
I look around  but it's you  I can't  replace 
F#
e|1------------10-------|----8------7-------|
B|1---------------------|-------------------|
G|2---------------------|-------------------|
D|3---------------------|-------------------|
A|3---------------------|-------------------|	
E|1---------------------|-------------------|
I feel so cold   and I long  for your embrace 
E
e|-------------8-------|--7------5---------|
B|---------------------|-------------------|
G|---------------------|-------------------|
D|---------------------|-------------------|
A|---------------------|-------------------|	
E|---------------------|-------------------|
I keep crying       baby,    baby    please!!! 
Ab                         Ab
E|--------------------|--------------------|
B|----------0---------|----------0---------|
G|-----2-------2-----2|-----2-------2-----0|
D|---0---0--------0---|---0---0--------0---|
A|--------------------|--------------------|
E|-3------------------|-3------------------|
Fm                   Fm
e|--------------------|--------------------|
B|--------------------|--------------------|
G|----------0---------|----------0---------|
D|-------4------4----4|-------4------4----4|
A|----2----2------2---|----2----2------2---|	
E|-0------------------|-0------------------|    
Db                   Eb
E|--------------------|-------0------------|
B|------3----1--------|------------3------0|
G|----0----0----0----0|----2----2-----2----|
D|--------------------|-0---------------0--|
A|-3--------------3---|--------------------|
E|--------------------|--------------------|
Fm                   Fm
e|--------------------|--------------------|
B|--------------------|--------------------|
G|----------0---------|----------0---------|
D|-------4------4----4|-------4------4----4|
A|----2----2------2---|----2----2------2---|	
E|-0------------------|-0------------------|    
Ab                  Ab
E|--------------------|--------------------|
B|----------0---------|----------0---------|
G|-----2-------2-----2|-----2-------2-----0|
D|---0---0--------0---|---0---0--------0---|
A|--------------------|--------------------|
E|-3------------------|-3------------------|
Fm                   Fm
e|--------------------|--------------------|
B|--------------------|--------------------|
G|----------0---------|----------0---------|
D|-------4------4----4|-------4------4----4|
A|----2----2------2---|----2----2------2---|	
E|-0------------------|-0------------------|    
Db                   Eb
E|--------------------|-------0------------|
B|------3----1--------|------------3------0|
G|----0----0----0----0|----2----2-----2----|
D|--------------------|-0---------------0--|
A|-3--------------3---|--------------------|
E|--------------------|--------------------|
REFRAIN:
Fm                   Ab
E|--------------------|--------------------|
B|--------------------|----------0---------|
G|-----------0--------|-----2-------2-----0|
D|-------4------4---4-|---0---0--------0---|
A|----2----2------2---|--------------------|
E|-0------------------|-3------------------|
O can't you see
Db                   Db/Cb       Bbm7
E|--------------------|---------------------|
B|------3----1--------|------3----1---------|
G|----0----0----0----0|----0----0----0-----0|     
D|--------------------|---------------------|            
A|-3--------------3---|-3--------------3----|
E|--------------------|---------------------|
You belong to me
Ab                   Ab
E|--------------------|--------------------|
B|----------0---------|----------0---------|
G|-----2-------2-----2|-----2-------2-----0|
D|---0---0--------0---|---0---0--------0---|
A|--------------------|--------------------|
E|-3------------------|-3------------------|
How my poor heart 
Bb7                  Bb7
e|---------------------|--------------------|
B|------------2--------|------------2-------|
G|-------4-------4---4-|-------4------4----4|
D|----2-----2------2---|----2----2-------2--|
A|-0-------------------|--0-----------------|	
E|---------------------|--------------------|    
aches                     with every step you 
Eb                    Eb7sus4
E|------0--------------|-------0------------|
B|-----------3-------0-|------------3------0|
G|---2----2-----2------|----2----2-----2----|
D|-0--------------0----|-0---------------0--|
A|---------------------|--------------------|
E|---------------------|--------------------|
Take                 Every move you make
Ab                   Ab
E|--------------------|--------------------|
B|----------0---------|----------0---------|
G|-----2-------2-----2|-----2-------2-----0|
D|---0---0--------0---|---0---0--------0---|
A|--------------------|--------------------|
E|-3------------------|-3------------------|
Every vow you break
Fm                   Fm
e|--------------------|--------------------|
B|--------------------|--------------------|
G|----------0---------|----------0---------|
D|-------4------4----4|-------4------4----4|
A|----2----2------2---|----2----2------2---|	
E|-0------------------|-0------------------|    
Every smile you fake
Db                   Eb        Eb7sus4
E|--------------------|-------0------------|
B|------3----1--------|------------3------0|
G|----0----0----0----0|----2----2-----2----|
D|--------------------|-0---------------0--|
A|-3--------------3---|--------------------|
E|--------------------|--------------------|
Every claim you stake   I'll be watching you  
Fm                    Fm
e|--------------------|--------------------|
B|--------------------|--------------------|
G|----------0---------|----------0---------|
D|-------4------4----4|-------4------4----4|
A|----2----2------2---|----2----2------2---|	
E|-0------------------|-0------------------|    
Every move you make
Db                    Eb           Eb7sus4
E|--------------------|-------0------------|
B|------3----1--------|------------3------0|
G|----0----0----0----0|----2----2-----2----|
D|--------------------|-0---------------0--|
A|-3--------------3---|--------------------|
E|--------------------|--------------------|    
Every step you take  I'll be watching you                                                         
Fm                         Fm
e|--------------------|--------------------|
B|--------------------|--------------------|
G|----------0---------|----------0---------|
D|-------4------4----4|-------4------4----4|
A|----2----2------2---|----2----2------2---|	
E|-0------------------|-0------------------|    
Fm                   Fm
e|--------------------|--------------------|
B|--------------------|--------------------|
G|----------0---------|----------0---------|
D|-------4------4----4|-------4------4----4|
A|----2----2------2---|----2----2------2---|	
E|-0------------------|-0------------------|    
I'll be watching                                    
Ab                  Ab
E|--------------------|--------------------|
B|----------0---------|----------0---------|
G|-----2-------2-----2|-----2-------2-----0|
D|---0---0--------0---|---0---0--------0---|
A|--------------------|--------------------|
E|-3------------------|-3------------------|       
you
}répéter ces 4 mesures jusqu’à la fin
Fm                   Ebsus4
e|--------------------|------0-------------|
B|--------------------|-----------3------0-|
G|----------0---------|----2----2-----2----|
D|-------4------4----4|--0----------0------|
A|----2----2------2---|--------------------|	
E|-0------------------|--------------------|
I'll be watching   

5 Comments

Leave a Reply

Ce site utilise Akismet pour réduire les indésirables. En savoir plus sur comment les données de vos commentaires sont utilisées.