Placebo

Placebo – Every you every me

Tablature gratuite de la chanson “Every you every me” de Placebo.

Clip vidéo

Voir tous les clips Placebo

Tablature, accords, paroles:

Tablature:

INTRO                                                           
E||--------------------------|----------------------------|
B||--------------------------|----------------------------|
G||--7--7--7--7--7--7--7--7--|--7--7--7--7-7-9--9--9--7-7-|
D||--7--7--7--7--7--7--7--7--|--7--7--7--7-7-8--8--8--7-7-|
A||--5--5--5--5--5--5--5--5--|--5--5--5--5-5-7--7--7--5-5-|
E||--------------------------|--6--6--6--6-6-8--8--8------|

                                                       
---------------------------|--------------------------|
---------------------------|--------------------------|
--7--7--7--7--7-----7--5-5-|--5--5--5--5--5--5--5-----|
--7--7--7--7--7-----7--5-5-|--5--5--5--5--5--5--5--6--|
--5--5--5--5--5--0-----5-5-|--5--5--5--5--8--8--8--6--|
-----------------------6-6-|--6--6--6--6--6--6--6-----|

                                                        
--------------------------|----------------------------|
--------------------------|----------------------------|
--7--7--7--7--7--7--7--7--|--7--7--7--7-7-9--9--9--7-7-|
--7--7--7--7--7--7--7--7--|--7--7--7--7-7-8--8--8--7-7-|
--5--5--5--5--5--5--5--5--|--5--5--5--5-5-7--7--7--5-5-|
--------------------------|--6--6--6--6-6-8--8--8------|

                                                        
---------------------------|---------------------------|
---------------------------|---------------------------|
--7--7--7--7--7-----7--7-7-|--7--7--7--7/-9--9--9--7-7-|
--7--7--7--7--7-----7--5-5-|--5--5--5--5/-7--7--7--7-7-|
--5--5--5--5--5--0-----5-5-|--5--5--5--5/-7--7--7--5-5-|
-----------------------6-6-|--6--6--6--6/-8--8--8------|



COUPLET 1                                             
--------------------------|----------------------------|
--------------------------|----------------------------|
--7--7--7--7--7--7--7--7--|--7--7--7--7-7-9--9--9--7-7-|
--7--7--7--7--7--7--7--7--|--7--7--7--7-7-8--8--8--7-7-|
--5--5--5--5--5--5--5--5--|--5--5--5--5-5-7--7--7--5-5-|
--------------------------|--6--6--6--6-6-8--8--8------|

                                                       
---------------------------|--------------------------|
---------------------------|--------------------------|
--7--7--7--7--7-----7--5-5-|--5--5--5--5--5--5--5--5--|
--7--7--7--7--7-----7--5-5-|--5--5--5--5--5--5--5--5--|
--5--5--5--5--5--0-----5-5-|--5--5--5--5--8--8--8--5--|
-----------------------6-6-|--6--6--6--6--6--6--6-----|

                                                        
--------------------------|----------------------------|
--------------------------|----------------------------|
--7--7--7--7--7--7--7--7--|--7--7--7--7-7-9--9--9--7-7-|
--7--7--7--7--7--7--7--7--|--7--7--7--7-7-8--8--8--7-7-|
--5--5--5--5--5--5--5--5--|--5--5--5--5-5-7--7--7--5-5-|
--------------------------|--6--6--6--6-6-8--8--8------|

                                                        
---------------------------|---------------------------|
---------------------------|---------------------------|
--7--7--7--7--7-----7--5-5-|--5--5--5--5/-7--7--7--7-7-|
--7--7--7--7--7-----7--5-5-|--5--5--5--5/-7--7--7--8-8-|
--5--5--5--5--5--0-----5-5-|--5--5--5--5/-7--7--7--8-8-|
-----------------------6-6-|--6--6--6--6/-8--8--8--6---|

REFRAIN 1                                             
---------------------------|---------------------------|
---------------------------|---------------------------|
--7--7--7--7--7--7--7--7-7-|--7--7--7--7--7--7--7--7-7-|
--8--8--8--8--8--8--8--8-8-|--8--8--8--8--8--8--8--7-7-|
--8--8--8--8--8--8--8--8-8-|--8--8--8--8--8--8--8--5-5-|
--6--6--6--6--6--6--6--6---|--6--6--6--6--6--6--6------|

                                                       
---------------------------|--------------------------|
---------------------------|--------------------------|
--7--7--7--7--7--7--7--7-7-|--7--7--7--5--7--5--7--7--|
--7--7--7--7--7--7--7--7-7-|--7--7--7--5--7--5--7--8--|
--5--5--5--5--5--5--5--5-5-|--5--5--5--5--5--5--5--8--|
---------------------------|-----------------------6--|

                                                       
--------------------------|---------------------------|
--------------------------|---------------------------|
----7--7--7--7--7--7--7-7-|--7--7--7--7--7--7--7--2-2-|
----8--8--8--8--8--8--8-8-|--8--8--8--8--8--8--8--2-2-|
----8--8--8--8--8--8--8-8-|--8--8--8--8--8--8--8--3-3-|
----6--6--6--6--6--6--6---|--6--6--6--6--6--6--6--1---|

                                                        
---------------------------|---------------------------|
---------------------------|---------------------------|
--2--2--2--2--2--2--2--5-5-|--5--5--5--5--5--5--5--7-7-|
--2--2--2--2--2--2--2--7-7-|--7--7--7--7--7--7--7--7-7-|
--3--3--3--3--3--3--3--7-7-|--7--7--7--7--7--7--7--5---|
--1--1--1--1--1--1--1--5---|--5--5--5--5--5--5--5------|

COUPLET 2                                             
--------------------------|----------------------------|
--------------------------|----------------------------|
--7--7--7--7--7--7--7--7--|--7--7--7--7-7-9--9--9--7-7-|
--7--7--7--7--7--7--7--7--|--7--7--7--7-7-8--8--8--7-7-|
--5--5--5--5--5--5--5--5--|--5--5--5--5-5-7--7--7--5-5-|
--------------------------|--6--6--6--6-6-8--8--8------|

                                                       
---------------------------|--------------------------|
---------------------------|--------------------------|
--7--7--7--7--7-----7--5-5-|--5--5--5--5--5--5--5--5--|
--7--7--7--7--7-----7--5-5-|--5--5--5--5--5--5--5--5--|
--5--5--5--5--5--0-----5-5-|--5--5--5--5--8--8--8--5--|
-----------------------6-6-|--6--6--6--6--6--6--6-----|

                                                        
--------------------------|----------------------------|
--------------------------|----------------------------|
--7--7--7--7--7--7--7--7--|--7--7--7--7-7-9--9--9--7-7-|
--7--7--7--7--7--7--7--7--|--7--7--7--7-7-8--8--8--7-7-|
--5--5--5--5--5--5--5--5--|--5--5--5--5-5-7--7--7--5-5-|
--------------------------|--6--6--6--6-6-8--8--8------|

                                                        
---------------------------|---------------------------|
---------------------------|---------------------------|
--7--7--7--7--7-----7--5-5-|--5--5--5--5/-7--7--7--7-7-|
--7--7--7--7--7-----7--5-5-|--5--5--5--5/-7--7--7--8-8-|
--5--5--5--5--5--0-----5-5-|--5--5--5--5/-7--7--7--8-8-|
-----------------------6-6-|--6--6--6--6/-8--8--8--6---|

REFRAIN 2                                             
---------------------------|---------------------------|
---------------------------|---------------------------|
--7--7--7--7--7--7--7--7-7-|--7--7--7--7--7--7--7--7-7-|
--8--8--8--8--8--8--8--8-8-|--8--8--8--8--8--8--8--7-7-|
--8--8--8--8--8--8--8--8-8-|--8--8--8--8--8--8--8--5-5-|
--6--6--6--6--6--6--6--6---|--6--6--6--6--6--6--6------|

                                                        
---------------------------|---------------------------|
---------------------------|---------------------------|
--7--7--7--7--7--7--7--7-7-|--7--7--7--5--7--5--7--7-7-|
--7--7--7--7--7--7--7--7-7-|--7--7--7--5--7--5--7--8-8-|
--5--5--5--5--5--5--5--5---|--5--5--5--5--5--5--5--8-8-|
---------------------------|-----------------------6---|

                                                        
---------------------------|---------------------------|
---------------------------|---------------------------|
--7--7--7--7--7--7--7--7-7-|--7--7--7--7--7--7--7--2-2-|
--8--8--8--8--8--8--8--8-8-|--8--8--8--8--8--8--8--2-2-|
--8--8--8--8--8--8--8--8-8-|--8--8--8--8--8--8--8--3-3-|
--6--6--6--6--6--6--6--6---|--6--6--6--6--6--6--6--1---|

                                                        
---------------------------|---------------------------|
---------------------------|---------------------------|
--2--2--2--2--2--2--2--5-5-|--5--5--5--5--5--5--5--7-7-|
--2--2--2--2--2--2--2--7-7-|--7--7--7--7--7--7--7--8-8-|
--3--3--3--3--3--3--3--7-7-|--7--7--7--7--7--7--7--8-8-|
--1--1--1--1--1--1--1--5---|--5--5--5--5--5--5--5--6---|

                                                        
---------------------------|---------------------------|
---------------------------|---------------------------|
--7--7--7--7--7--7--7--7-7-|--7--7--7--7--7--7--7--2-2-|
--8--8--8--8--8--8--8--8-8-|--8--8--8--8--8--8--8--2-2-|
--8--8--8--8--8--8--8--8-8-|--8--8--8--8--8--8--8--3-3-|
--6--6--6--6--6--6--6--6---|--6--6--6--6--6--6--6--1---|

                                                        
---------------------------|---------------------------|
---------------------------|---------------------------|
--2--2--2--2--2--2--2--5-5-|--5--5--5--5--5--5--5--7-7-|
--2--2--2--2--2--2--2--7-7-|--7--7--7--7--7--7--7--7-7-|
--3--3--3--3--3--3--3--7-7-|--7--7--7--7--7--7--7--5---|
--1--1--1--1--1--1--1--5---|--5--5--5--5--5--5--5------|

COUPLET 3                                             
--------------------------|----------------------------|
--------------------------|----------------------------|
--7--7--7--7--7--7--7--7--|--7--7--7--7-7-9--9--9--7-7-|
--7--7--7--7--7--7--7--7--|--7--7--7--7-7-8--8--8--7-7-|
--5--5--5--5--5--5--5--5--|--5--5--5--5-5-7--7--7--5-5-|
--------------------------|--6--6--6--6-6-8--8--8------|

                                                       
---------------------------|--------------------------|
---------------------------|--------------------------|
--7--7--7--7--7-----7--5-5-|--5--5--5--5--5--5--5--5--|
--7--7--7--7--7-----7--5-5-|--5--5--5--5--5--5--5--5--|
--5--5--5--5--5--0-----5-5-|--5--5--5--5--8--8--8--5--|
-----------------------6-6-|--6--6--6--6--6--6--6-----|

                                                        
--------------------------|----------------------------|
--------------------------|----------------------------|
--7--7--7--7--7--7--7--7--|--7--7--7--7-7-9--9--9--7-7-|
--7--7--7--7--7--7--7--7--|--7--7--7--7-7-8--8--8--7-7-|
--5--5--5--5--5--5--5--5--|--5--5--5--5-5-7--7--7--5-5-|
--------------------------|--6--6--6--6-6-8--8--8------|

                                                        
---------------------------|---------------------------|
---------------------------|---------------------------|
--7--7--7--7--7-----7--5-5-|--5--5--5--5/-7--7--7--7-7-|
--7--7--7--7--7-----7--5-5-|--5--5--5--5/-7--7--7--8-8-|
--5--5--5--5--5--0-----5-5-|--5--5--5--5/-7--7--7--8-8-|
-----------------------6-6-|--6--6--6--6/-8--8--8--6---|

REFRAIN 3                                             
---------------------------|---------------------------|
---------------------------|---------------------------|
--7--7--7--7--7--7--7--7-7-|--7--7--7--7--7--7--7--7-7-|
--8--8--8--8--8--8--8--8-8-|--8--8--8--8--8--8--8--7-7-|
--8--8--8--8--8--8--8--8-8-|--8--8--8--8--8--8--8--5-5-|
--6--6--6--6--6--6--6--6---|--6--6--6--6--6--6--6------|

                                                        
---------------------------|---------------------------|
---------------------------|---------------------------|
--7--7--7--7--7--7--7--7-7-|--7--7--7--5--7--5--7--7-7-|
--7--7--7--7--7--7--7--7-7-|--7--7--7--5--7--5--7--8-8-|
--5--5--5--5--5--5--5--5---|--5--5--5--5--5--5--5--8-8-|
---------------------------|-----------------------6---|

                                                        
---------------------------|---------------------------|
---------------------------|---------------------------|
--7--7--7--7--7--7--7--7-7-|--7--7--7--7--7--7--7--2-2-|
--8--8--8--8--8--8--8--8-8-|--8--8--8--8--8--8--8--2-2-|
--8--8--8--8--8--8--8--8-8-|--8--8--8--8--8--8--8--3-3-|
--6--6--6--6--6--6--6--6---|--6--6--6--6--6--6--6--1---|

                                                        
---------------------------|---------------------------|
---------------------------|---------------------------|
--2--2--2--2--2--2--2--5-5-|--5--5--5--5--5--5--5--7-7-|
--2--2--2--2--2--2--2--7-7-|--7--7--7--7--7--7--7--8-8-|
--3--3--3--3--3--3--3--7-7-|--7--7--7--7--7--7--7--8-8-|
--1--1--1--1--1--1--1--5---|--5--5--5--5--5--5--5--6---|

                                                        
---------------------------|---------------------------|
---------------------------|---------------------------|
--7--7--7--7--7--7--7--7-7-|--7--7--7--7--7--7--7--2-2-|
--8--8--8--8--8--8--8--8-8-|--8--8--8--8--8--8--8--2-2-|
--8--8--8--8--8--8--8--8-8-|--8--8--8--8--8--8--8--3-3-|
--6--6--6--6--6--6--6--6---|--6--6--6--6--6--6--6--1---|

                                                        
---------------------------|---------------------------|
---------------------------|---------------------------|
--2--2--2--2--2--2--2--5-5-|--5--5--5--5--5--5--5--7-7-|
--2--2--2--2--2--2--2--7-7-|--7--7--7--7--7--7--7--8-8-|
--3--3--3--3--3--3--3--7-7-|--7--7--7--7--7--7--7--8-8-|
--1--1--1--1--1--1--1--5---|--5--5--5--5--5--5--5--6---|


                                                        
---------------------------|---------------------------|
---------------------------|---------------------------|
--7--7--7--7--7--7--7--7-7-|--7--7--7--7--7--7--7--2-2-|
--8--8--8--8--8--8--8--8-8-|--8--8--8--8--8--8--8--2-2-|
--8--8--8--8--8--8--8--8-8-|--8--8--8--8--8--8--8--3-3-|
--6--6--6--6--6--6--6--6---|--6--6--6--6--6--6--6--1---|

                                                        
---------------------------|---------------------------|
---------------------------|---------------------------|
--2--2--2--2--2--2--2--5-5-|--5--5--5--5--5--5--5--7-7-|
--2--2--2--2--2--2--2--7-7-|--7--7--7--7--7--7--7--7-7-|
--3--3--3--3--3--3--3--7-7-|--7--7--7--7--7--7--7--5---|
--1--1--1--1--1--1--1--5---|--5--5--5--5--5--5--5------|

COUPLET 4                                             
--------------------------|----------------------------|
--------------------------|----------------------------|
--7--7--7--7--7--7--7--7--|--7--7--7--7-7-9--9--9--7-7-|
--7--7--7--7--7--7--7--7--|--7--7--7--7-7-8--8--8--7-7-|
--5--5--5--5--5--5--5--5--|--5--5--5--5-5-7--7--7--5-5-|
--------------------------|--6--6--6--6-6-8--8--8------|

                                                       
---------------------------|--------------------------|
---------------------------|--------------------------|
--7--7--7--7--7-----7--5-5-|--5--5--5--5--5--5--5--5--|
--7--7--7--7--7-----7--5-5-|--5--5--5--5--5--5--5--5--|
--5--5--5--5--5--0-----5-5-|--5--5--5--5--8--8--8--5--|
-----------------------6-6-|--6--6--6--6--6--6--6-----|

                                                        
--------------------------|----------------------------|
--------------------------|----------------------------|
--7--7--7--7--7--7--7--7--|--7--7--7--7-7-9--9--9--7-7-|
--7--7--7--7--7--7--7--7--|--7--7--7--7-7-8--8--8--7-7-|
--5--5--5--5--5--5--5--5--|--5--5--5--5-5-7--7--7--5-5-|
--------------------------|--6--6--6--6-6-8--8--8------|

                                                        
---------------------------|---------------------------|
---------------------------|---------------------------|
--7--7--7--7--7-----7--5-5-|--5--5--5--5/-7--7--7--7-7-|
--7--7--7--7--7-----7--5-5-|--5--5--5--5/-7--7--7--8-8-|
--5--5--5--5--5--0-----5-5-|--5--5--5--5/-7--7--7--8-8-|
-----------------------6-6-|--6--6--6--6/-8--8--8--6---|

REFRAIN FINAL                                         
---------------------------|---------------------------|
---------------------------|---------------------------|
--7--7--7--7--7--7--7--7-7-|--7--7--7--7--7--7--7--7-7-|
--8--8--8--8--8--8--8--8-8-|--8--8--8--8--8--8--8--7-7-|
--8--8--8--8--8--8--8--8-8-|--8--8--8--8--8--8--8--5-5-|
--6--6--6--6--6--6--6--6---|--6--6--6--6--6--6--6------|

                                                        
---------------------------|---------------------------|
---------------------------|---------------------------|
--7--7--7--7--7--7--7--7-7-|--7--7--7--5--7--5--7--7-7-|
--7--7--7--7--7--7--7--7-7-|--7--7--7--5--7--5--7--8-8-|
--5--5--5--5--5--5--5--5---|--5--5--5--5--5--5--5--8-8-|
---------------------------|-----------------------6---|

                                                        
---------------------------|---------------------------|
---------------------------|---------------------------|
--7--7--7--7--7--7--7--7-7-|--7--7--7--7--7--7--7--2-2-|
--8--8--8--8--8--8--8--8-8-|--8--8--8--8--8--8--8--2-2-|
--8--8--8--8--8--8--8--8-8-|--8--8--8--8--8--8--8--3-3-|
--6--6--6--6--6--6--6--6---|--6--6--6--6--6--6--6--1---|

                                                        
---------------------------|---------------------------|
---------------------------|---------------------------|
--2--2--2--2--2--2--2--5-5-|--5--5--5--5--5--5--5--7-7-|
--2--2--2--2--2--2--2--7-7-|--7--7--7--7--7--7--7--8-8-|
--3--3--3--3--3--3--3--7-7-|--7--7--7--7--7--7--7--8-8-|
--1--1--1--1--1--1--1--5---|--5--5--5--5--5--5--5--6---|

                                                        
---------------------------|---------------------------|
---------------------------|---------------------------|
--7--7--7--7--7--7--7--7-7-|--7--7--7--7--7--7--7--2-2-|
--8--8--8--8--8--8--8--8-8-|--8--8--8--8--8--8--8--2-2-|
--8--8--8--8--8--8--8--8-8-|--8--8--8--8--8--8--8--3-3-|
--6--6--6--6--6--6--6--6---|--6--6--6--6--6--6--6--1---|

                                                        
---------------------------|---------------------------|
---------------------------|---------------------------|
--2--2--2--2--2--2--2--5-5-|--5--5--5--5--5--5--5--7-7-|
--2--2--2--2--2--2--2--7-7-|--7--7--7--7--7--7--7--8-8-|
--3--3--3--3--3--3--3--7-7-|--7--7--7--7--7--7--7--8-8-|
--1--1--1--1--1--1--1--5---|--5--5--5--5--5--5--5--6---|

                                                        
---------------------------|---------------------------|
---------------------------|---------------------------|
--7--7--7--7--7--7--7--7-7-|--7--7--7--7--7--7--7--2-2-|
--8--8--8--8--8--8--8--8-8-|--8--8--8--8--8--8--8--2-2-|
--8--8--8--8--8--8--8--8-8-|--8--8--8--8--8--8--8--3-3-|
--6--6--6--6--6--6--6--6---|--6--6--6--6--6--6--6--1---|

                                                        
---------------------------|---------------------------|
---------------------------|---------------------------|
--2--2--2--2--2--2--2--5-5-|--5--5--5--5--5--5--5--7-7-|
--2--2--2--2--2--2--2--7-7-|--7--7--7--7--7--7--7--8-8-|
--3--3--3--3--3--3--3--7-7-|--7--7--7--7--7--7--7--8-8-|
--1--1--1--1--1--1--1--5---|--5--5--5--5--5--5--5--6---|

                                                        
---------------------------|---------------------------|
---------------------------|---------------------------|
--7--7--7--7--7--7--7--7-7-|--7--7--7--7--7--7--7--2-2-|
--8--8--8--8--8--8--8--8-8-|--8--8--8--8--8--8--8--2-2-|
--8--8--8--8--8--8--8--8-8-|--8--8--8--8--8--8--8--3-3-|
--6--6--6--6--6--6--6--6---|--6--6--6--6--6--6--6--1---|

                                                        
---------------------------|---------------------------|
---------------------------|---------------------------|
--2--2--2--2--2--2--2--5-5-|--5--5--5--5--5--5--5--7-7-|
--2--2--2--2--2--2--2--7-7-|--7--7--7--7--7--7--7--8-8-|
--3--3--3--3--3--3--3--7-7-|--7--7--7--7--7--7--7--8-8-|
--1--1--1--1--1--1--1--5---|--5--5--5--5--5--5--5--6---|

                                                        
---------------------------|---------------------------|
---------------------------|---------------------------|
--7--7--7--7--7--7--7--7-7-|--7--7--7--7--7--7--7--2-2-|
--8--8--8--8--8--8--8--8-8-|--8--8--8--8--8--8--8--2-2-|
--8--8--8--8--8--8--8--8-8-|--8--8--8--8--8--8--8--3-3-|
--6--6--6--6--6--6--6--6---|--6--6--6--6--6--6--6--1---|

                                                        
---------------------------|---------------------------|
---------------------------|---------------------------|
--2--2--2--2--2--2--2--5-5-|--5--5--5--5--5--5--5--7-7-|
--2--2--2--2--2--2--2--7-7-|--7--7--7--7--7--7--7--8-8-|
--3--3--3--3--3--3--3--7-7-|--7--7--7--7--7--7--7--8-8-|
--1--1--1--1--1--1--1--5---|--5--5--5--5--5--5--5--6---|

                                                        
---------------------------|---------------------------|
---------------------------|---------------------------|
--7--7--7--7--7--7--7--7-7-|--7--7--7--7--7--7--7--2-2-|
--8--8--8--8--8--8--8--8-8-|--8--8--8--8--8--8--8--2-2-|
--8--8--8--8--8--8--8--8-8-|--8--8--8--8--8--8--8--3-3-|
--6--6--6--6--6--6--6--6---|--6--6--6--6--6--6--6--1---|

                                                        
---------------------------|---------------------------|
---------------------------|---------------------------|
--2--2--2--2--2--2--2--5-5-|--5--5--5--5--5--5--5--7-7-|
--2--2--2--2--2--2--2--7-7-|--7--7--7--7--7--7--7--8-8-|
--3--3--3--3--3--3--3--7-7-|--7--7--7--7--7--7--7--8-8-|
--1--1--1--1--1--1--1--5---|--5--5--5--5--5--5--5--6---|

                                                        
---------------------------|---------------------------|
---------------------------|---------------------------|
--7--7--7--7--7--7--7--7-7-|--7--7--7--7--7--7--7--2-2-|
--8--8--8--8--8--8--8--8-8-|--8--8--8--8--8--8--8--2-2-|
--8--8--8--8--8--8--8--8-8-|--8--8--8--8--8--8--8--3-3-|
--6--6--6--6--6--6--6--6---|--6--6--6--6--6--6--6--1---|

                                                                             
---------------------------|---------------------------|-------------------||
---------------------------|---------------------------|-------------------||
--2--2--2--2--2--2--2--5-5-|--5--5--5--5--5--5--5--7-7-|--6----------------||
--2--2--2--2--2--2--2--7-7-|--7--7--7--7--7--7--7--8-8-|--8----------------||
--3--3--3--3--3--3--3--7-7-|--7--7--7--7--7--7--7--8-8-|--8----------------||
--1--1--1--1--1--1--1--5---|--5--5--5--5--5--5--5--6---|--6----------------||


Paroles :

Sucker love is heaven sent.
You pucker up, our passion's spent.
My hearts a tart, your body's rent.
My body's broken, yours is spent.

Carve your name into my arm.
Instead of stressed, I lie here charmed.
Cuz there's nothing else to do,
Every me and every you.

Sucker love, a box I choose.
No other box I choose to use.
Another love I would abuse,
No circumstances could excuse.

In the shape of things to come.
Too much poison come undone.
Cuz there's nothing else to do,
Every me and every you.
Every me and every you,
Every Me...he

Sucker love is known to swing.
Prone to cling and waste these things.
Pucker up for heavens sake.
There's never been so much at stake.

I serve my head up on a plate.
It's only comfort, calling late.
Cuz there's nothing else to do,
Every me and every you.
Every me and every you,
Every Me...he

Every me and every you,
Every Me...he

Like the naked leads the blind.
I know I'm selfish, I'm unkind.
Sucker love I always find,
Someone to bruise and leave behind.

All alone in space and time.
There's nothing here but what here's here's mine.
Something borrowed, something blue.
Every me and every you.
Every me and every you,
Every Me...he

Every me and every you,
Every Me...he (x4)

One Comment

Leave a Reply

Ce site utilise Akismet pour réduire les indésirables. En savoir plus sur comment les données de vos commentaires sont utilisées.