Oasis

Oasis – I’m outta time

Vidéo guitare et chant, tablature, accords, paroles de la chanson “I’m outta time” de Oasis.

Tablature : accords, paroles

accords utilisés :
Em (022000)
Cmaj7 (x32000)
Em6 (x42000)
E7sus4 (020200)
C (x32010)
G (3x0022)
Bm/F# (2x443x)
Em7(022030)

Intro:
  Em               Cmaj7
E|0-------0-------|0-------0-------|
B|-----0-------0--|-----0-------0--|
G|---0-------0----|---0-------0----|
D|--2----2--2----2|--2----2--2----2|
A|----------------|----------------|
E|----------------|----------------|
  Em6              Cmaj7
E|0-------0-------|0-------0-------|
B|-----0-------0--|-----0-------0--|
G|---0-------0----|---0-------0----|
D|--2----2--2----2|--2----2--2----2|
A|----------------|----------------|
E|----------------|----------------|    X2

Verse 1:
Em
Here's a song
                      E7sus4
It reminds me of when we were young
                         Am
Looking back at all the things we've done
                   C
You gotta keep on keepin' on

Out to sea
Is the only place I am asleep
Can get myself some piece of mind
You know it's getting hard to fly

Chorus:
G
If I'm to fall
Bm/F#
Would you be there to applaud
   Em                            Em7
Or would you hide behind the law
                   Am
Because If I am to go
                 C
In my heart you grow
                       G
And that's where you belong

  [Bass Riff]
G|----------------|----------------|
D|----------------|----------------|
A|------------5---|7---------------|
E|----3---5s7-----|----------------|

Guitar Solo:
E|------------------------|------------------------|
B|15b(17)-----15----------|------------------------|
G|------------------------|14-16----14----12-------|
D|------------------------|------------------14----|
A|------------------------|------------------------|
E|------------------------|------------------------|    X4

Chorus:
If I'm to fall
Would you be there to applaud
Or would you hide behind the law
Because If I am to go
In my heart you grow
And that's where you belong

If I'm to fall
Would you be there to applaud
Or would you hide behind the law
Because If I am to go
In my heart you grow
And that's where you belong

Outro:
    G
Yes I'm out of time
                Bm/F#
I'm out of time
Em
I'm out of time
Am
I'm out of time
C
I'm out of time

G       |      Bm/F#
Em      |
Am      |
C       |               Repeat & fade

One Comment

Leave a Reply

Ce site utilise Akismet pour réduire les indésirables. En savoir plus sur comment les données de vos commentaires sont utilisées.