Nirvana

Nirvana – Smells like teen spirit

Vidéo guitare et chant, tablature, accords, paroles de la chanson “Smells like teen spirit” de Nirvana.

Tablature : accords, paroles

Intro :

E||-----------------------------------------------||
B||------------ ------0—x---0---3--3--3—--0—--0---||
G||---3--3--3---x---0---x---0---3--3--3---0---0---||
D||---3--3--3---x---0---x---0---3--3--3---0---0---||
A||---3--3--3---x-----------------1--1--1—--------||
E||---1--1--1---x---------------------------------||


||---------------------------------------------------||
||--------------------------6--6--6----x---0---------||
||---6--6--6----------------6--6--6----x---0---------||
||---6--6--6---x--x--x--x---6--6--6----x---0---------||
||---6--6--6---x--x--x--x---4--4--4----x-------------||
||---4--4--4---x--x--x--x----------------------------||


||---------------------------------------------||
||--------------------------3--3--3---0---0----||
||---3--3--3----------------3--3--3---0---0----||
||---3--3--3---x--x--x--x---3--3--3---0---0----||
||---3--3--3---x--x--x--x---1--1--1------------||
||---1--1--1---x--x--x--x----------------------||


||----------------------------------------------||
||----------------------------6----6----6-------||
||---6--6--6------------------6----6----6-------||
||---6--6--6----x--x--x--x----6----6----6-------||
||---6--6--6----x--x--x--x----4----4----4-------||
||---4--4--4----x--x--x--x----------------------||

Paroles :

Load up on guns, bring your friends      
It's fun to lose, and to pretend          
She's over bored, and self assured
I know I know, A dirty word

hello, hello, hello, hello. . .hello, hello, hello, hello,
hello, hello, hello, hello. . .hello, hello, hello, hello

With the lights out it's less dangerous
Here we are now, entertain us
I feel stupid and contagious
Here we are now, entertain us.
A mulatto, an albino, a mosquito, my libido, Yea!

I'm worse at what I do best,        
and for this gift I feel blessed.  
I met a group that's always been    
And always will until the end.      

And I forget, just why i taste    
Oh yes I guess it makes me smile    
I found it hard. . .Its hard to find
Oh well, whatever, nevermind 

13 Comments

  • vincent dit :

    Vous avez les tablatures du solo svp psk jen é besoin pour mon prochain concert!!!!

  • v1rg1le dit :

    non

  • darkow dit :

    comment on fais les x ? Pas piger, car je debute =)

  • charly 21 dit :

    darkow … un conseil ne debute pa sur nirvana . fai sa plu tar . serieu c tro dificile pour ton nivo tu nobtiendra pa un bo son =)
    bne cyhance pour aprendre

  • Seb B dit :

    Darko, pour le jour où tu auras le niveau (il parait que tu ne l’as pas ???) :
    garde les doigts de la main gauche dans la position de l’accord, mais ne presse pas l’accord contre le manche : tu auras juste le son des cordes que tu grattes sans les notes.
    Pour ça, relâche la pression de la main gauche pour obtenir cet effet rythmique.

    Et comme un dessin vaut mieux qu’un long discours, regarde la vidéo vers 1:15 à 1:20 : tu verras qu’en gardant le même accord, Kurt relâche le barré pour le replaquer tout de suite après, tout en continuant de gratter : c’est ça, les XXX !!!

  • charly 21 dit :

    darkow dsl de t’avoir dit sa . mais tu peu toujour essayer entraine toi a assouplir tes doigts pour un meilleur deplacement sans tro défort

  • darkow dit :

    Ok merci les gars, pour info sa fait quelque moi que je joue a la seche, je joue redemption de bob marley ( juste l’intro ), les copains d’abord-Goerge brasens, Keren ann, Un riff que g composer =), L’opening d’elfen lied qui se nomme Lilium, les jeux interdit ( le premeir truc quon apprend ) =p ! Jvou remerci beuacoup pour c conseille !

  • kooo dit :

    joli progression les gars! nirvana pour un début c’est carrément de la virtuosité!! mdr….

  • lili dit :

    super morceau =)

  • MrRidYou dit :

    Franchement je débute aussi et le ruc de Seb B c’est pas très dur !!!

  • guitarist dit :

    Pour ceux qui debute comme moi (3h de cour derriere moi ) je vous conseille “cas are you are ” de nirvana aussi , qui est nettement plus simple =)

  • guitarist dit :

    come as you are pardon

Leave a Reply

Ce site utilise Akismet pour réduire les indésirables. En savoir plus sur comment les données de vos commentaires sont utilisées.