mouskouriNada Surf

Nada Surf – Popular

Tablature gratuite de la chanson “Popular” de Nada Surf.

Tablature, accords, paroles:

-girls talking in background
(no i blah blah 'hey i got penny')

e --------------------------------------
B -----0-------0-----------0--------0---
G --------------------------------------
D --------------------------------------
A -3-3----3-3------0-2-2--------------0-
E -----------------------------0-0------

^repeat 3 times

e -----------------------------------------
B ------0-------0--------------------------
G -----------------------5----5----4----4--
D ----------------------5-5--5-5--4-4--4---
A -3-3----3-3------0--3-----3----2----2---0
E -----------------------------------------
(more talking)
e --------------------------------------
B -----0-------0-----------0--------0---
G --------------------------------------
D --------------------------------------
A -3-3----3-3------0-2-2--------------0-
E -----------------------------0-0------
repeat three more times and then play bridge

Bridge:

e ----------------------
B ----------------------
G ---5----5----4----4---
D --5-5--5-5--4-4--4-4--
A -3----3----2----2-----
E ----------------------

e --------------------------------------
B -----0-------0-----------0--------0---
G --------------------------------------
D --------------------------------------
A -3-3----3-3------0-2-2--------------0-
E -----------------------------0-0------

^repeat 3 times

(bridge)
.'...unless he's a real jerk or a crybaby, you don't need friends!'

chorus 1:
                A              G
im head of the class... im popular
           A                   G
im a quarterback...     im popular
                  A            G
my mom says im a catch..im popular
               F                        C
im never last picked. i got a cheerleader chick.


'being attractive...' blah blah more talking

e --------------------------------------
B -----0-------0-----------0--------0---
G --------------------------------------
D --------------------------------------
A -3-3----3-3------0-2-2--------------0-
E -----------------------------0-0------

^repeat 3 times

(bridge)


chorus 2:
             A               G
im the party star   ...im popular
             A               G
i got my own car    ...im popular
             A               G
i never get caught  ...im popular
             F               C
i make football best...im the teachers pet


e --------------------------------------
B -----0-------0-----------0--------0---
G --------------------------------------
D --------------------------------------
A -3-3----3-3------0-2-2--------------0-
E -----------------------------0-0------

^repeat 3 times

(bridge)

e --------------------------------------
B -----0-------0-----------0--------0---
G --------------------------------------
D --------------------------------------
A -3-3----3-3------0-2-2--------------0-
E -----------------------------0-0------

^repeat 4 times

(bridge)
(chorus 1)
(chorus 2)
end on A

One Comment

Leave a Reply

Ce site utilise Akismet pour réduire les indésirables. En savoir plus sur comment les données de vos commentaires sont utilisées.