Muse

Muse – Sing for absolution

Tablature gratuite de la chanson “Sing for absolution” de Muse.

Tablature, accords, paroles:

Intro & Couplets:
|---------------------------------------------|
|--6-----8--6-----8--6-----8--6-----8--6---8--|
|---------------------------------------------|
|----7-8------7-8------7-8------7-8-----7-8---|
|---------------------------------------------|
|---------------------------------------------|

|---------------------------------------------|
|--5-----6--5-----6--5-----6--5-----6---------|
|------7--------7--------6--------6-----------|
|----6--------6--------5--------5-------------|
|---------------------------------------------|
|---------------------------------------------|

Refrain:
C
|------------------0-----------------------0---------------3--------|
|----------1---------1-----1-------------1---1-----------1---1---1--|
|------0-----0---0-----0-----0---0-----0-------0-------0-------0----|
|----2---2-----2---------2-----2-----2-----------2---2--------------|
|--3-------------------------------3---------------3----------------|
|-------------------------------------------------------------------|

Gm                                 Gm7                         Gm      
|----------3-------3-------3-------1-------1-------1-------1-------3------|
|------3-----3---3---3---3---3---3---3---3---3---3---3---3---3---3---3----|
|----3---3-----3-------3-------3-------3-------3-------3-------3-------3--|
|-------------------------------------------------------------------------|
|-------------------------------------------------------------------------|
|--3----------------------------------------------------------------------|

C*                   C                                 Csus*   C*
|----3---------------0-------0----------------0--------1-------3-----------|
|--1---1-----1---------1-------1---1--------1---1--------1---1---1---1-----|
|--------0-----0---------0-------0--------0-------0--------0-------0-------|
|----------2-----2---------2------------2-----------2----------------------|
|------------------3------------------3------------------------------------|
|--------------------------------------------------------------------------|

Gm                                 Gm9 
|----------3-------3-------3-------5------5-------5-------5-------5------|
|------3-----3---3---3---3---3---3---3---3--3---3---3---3---3---3---3----|
|----3---3-----3-------3-------3-------3------3-------3-------3-------3--|
|------------------------------------------------------------------------|
|------------------------------------------------------------------------|
|--3---------------------------------------------------------------------|



Couplet 1:
Dm
Lips are turning blue
Bb
a kiss that can't renew
Em
I only dream of you
A
my beautiful

Tiptoe to your moon
a starlight in the gloom
I only dream of you
and you never knew


Refrain:
C	      G	
Sing for absolution
	C
I will be singing
	           G
and falling from your grace
Asus4      A

Couplet 2:
There's nowhere left to hide
in no one to confide
the truth runs deep inside
and will never die

Lips are turning blue
a kiss that can't renew
I only dream of you
my beautiful


Refrain:
Sing for absolution
I will be singing
and falling from your grace

Sing for absolution
I will be singing
and falling from your grace

I won't remain unrectified
and our souls won't be absolved 
top

3 Comments

  • Noemie dit :

    très bien, mais pour le 3eme accord, je suggere plutot “E” et dans le refrain, Gm est plus adapté. Sinon, good job =)

  • Noemie dit :

    sorry, mais, “tiptoe to your room” et pas “moon” / “burns deep inside” au lieu de “runs deep inside” / et la derniere phrase c’est : Our wrongs remain unrectified, And our souls won’t be exhumed

    ;)

  • PANIS dit :

    Coucou ! ;D
    Un site vraiment genial, ou l’on trouve tout ce que l’on veut !!!
    Encouragement :) Bravo !!! ;)

    PS: Je suis sur que -vu le debut- vous pouvez faire mieux !!

Leave a Reply

Ce site utilise Akismet pour réduire les indésirables. En savoir plus sur comment les données de vos commentaires sont utilisées.