Luke

Luke – La sentinelle

Vidéo guitare et chant, tablature gratuite, accords, paroles de la chanson “La sentinelle” de Luke.

Tablature : accords, paroles

Intro :

e--7-7-7-7-7---7-7-7---7--7--
B--8-8-8-8-8---7-7-7---10-10-
G--7-7-7-7-7---7-7-7---7--7--	X8
D--9-9-9-9-9---9-9-9---9--9--
A----------------------------
E----------------------------

Couplet :

Em					C
J’ai vendu ma misère pour une voix de soumission
			Am
Au fond de moi la sentinelle
			Em
Pouvait briller sans exeption
Em
Et les sourires étaient les mêmes
Em					C
A-t-on le cri du coeur, la vérité ou la raison
				Am
Vous n’entendez donc que la bête
				G
Et ses réponses à vos questions


Refrain :

		Em	Am
Est-ce que la fièvre
G		B
Est un délit d’opinion?
		Em	Am
Est-ce que ma peine 
G		B
Etait un vote de sanction?
		Em	Am
Et la sentinelle
G				B
Qui trouve réponse à mes questions
		C
Serait-ce la bête?
		Am
Serait-ce la bête?
                  Em (ou début du riff)
Ou bien l’oppression?

Riff :

e--7-7-7-7-7---7-7-7---7--7--
B--8-8-8-8-8---7-7-7---10-10-
G--7-7-7-7-7---7-7-7---7--7--	X2
D--9-9-9-9-9---9-9-9---9--9--
A----------------------------
E----------------------------


Couplet :

Em						C
Mon cri sert de silence, aux fossoyeurs de la compassion
			Am
Aux mijaurées de la suffisance
			Em
Aux incendiaires de l’unisson
Em
Quand un sourire décède
Em			C
D’avoir trop souri à l’opinion
				Am
A cette soupape, cette sainte-atèle
			G
J’aurais pu encore dire non


Refrain :

		Em	Am
Est-ce que la fièvre
G		B
Est un délit d’opinion?
		Em	Am
Est-ce que ma peine 
G		B
Etait un vote de sanction?
		Em	Am
Et la sentinelle
G				B
Qui trouve réponse à mes questions
		C
Serait-ce la bête?
		Am
Serait-ce la bête?
                  Em (ou début du riff)
Ou bien l’oppression?

Riff :

e--7-7-7-7-7---7-7-7---7--7--
B--8-8-8-8-8---7-7-7---10-10-
G--7-7-7-7-7---7-7-7---7--7--	X2
D--9-9-9-9-9---9-9-9---9--9--
A----------------------------
E----------------------------



D		Em
Ravale donc ta rengaine
D		Em
Ravale donc tes sanglots
D		Em
De l’amour ou de la haine
D		D
Qui donc aura bon dos


Couplet :

Em							C
J’ai eu ce cri de guerre, pas en faux frère mais en sans-nom
			Am
Je donne ma main à l’enfer
			G
Sous vos crachats ma reddition


Refrain :

		Em	Am
Est-ce que la fièvre
G		B
Est un délit d’opinion?
		Em	Am
Est-ce que ma peine 
G		B
Etait un vote de sanction?
		Em	Am
Et la sentinelle
G				B
Qui trouve réponse à mes questions
		C
Serait-ce la bête?
		Am
Serait-ce la bête?
                  Em (ou début du riff)
Ou bien l’oppression?

Riff :

e--7-7-7-7-7---7-7-7---7--7--
B--8-8-8-8-8---7-7-7---10-10-
G--7-7-7-7-7---7-7-7---7--7--	X4
D--9-9-9-9-9---9-9-9---9--9--
A----------------------------
E----------------------------

11 Comments

Leave a Reply

Ce site utilise Akismet pour réduire les indésirables. En savoir plus sur comment les données de vos commentaires sont utilisées.