Jimi Hendrix

Jimi Hendrix – Hey Joe

Vidéo guitare et chant, tablature gratuite, accords, paroles de la chanson «Hey Joe» de Jimi Hendrix.

Tablature, accords, paroles

--0----0--------------------------------0-
--3/5--3--0----0--0-------0-------------0-
----------4/2--0--1-------0---0---------1-
------------------2-----4/5---5---4--2--2-
------------------------4/5---5---4--2--2-
------------------0---------------------0-

------------------
--------7-----7---
--------7-----7---
----7h9---7h9---9-
------------------
------------------

Solo:
--------12----------------------
--15(17)----15-12---------------
------------------14p12----12~~-
-----------------------14-------
--------------------------------
--------------------------------

---------12-12----------------------------------------------
--15(17)----15-12-------------------------------------------
-----------------14-12--14p12-14(16)-12(14)-------12----12\-
--------------------------------------------14~~-----14-----
------------------------------------------------------------
------------------------------------------------------------

------------------------------------------
------------------------15(17)--15(17)~~~-
--------------12~-------------------------
-------12---------14\---------------------
----14-----14-----------------------------
--0/--------------------------------------

--12-12-12-------12----------------------------
--12-15-12-12----12-15-------12----------------
-----------14(16)------14(16)----------14-12~~-
--------------------------------12-14----------
-----------------------------------------------
-----------------------------------------------

-----------12-15(17)15~-12----------12---------------------
---------12-----------------------15----15-----------------
---14(16)-------------------14(16)----------14(16)14-12~~~-
-----------------------------------------------------------
-----------------------------------------------------------
-----------------------------------------------------------

------------------------------
---------------------12~------
---------12----12----12~------
-14\-----12----12h14------14\-
---------12h14------------14\-
------------------------------

---------------------------------------0------------
---------------------------------------0-------7-9--
-----------------------------------------------7-9--
-------------------------------------9---7h9p7-7-9--
---3---------2-3-4--5---------4-5-6--7--------------
-----0-1-2-3----------2-3-4-5--------0--------------


C    G    D         A              E
Hey Joe, Where you goin' with that gun in your hand?
C    G    D         A              E
Hey Joe, Where you goin' with that gun in your hand?
C                 G
I'm goin' down to shoot my old lady,
D                     A                  E     
you know I caught her messin' round with another man.
C                 G
I'm goin' down to shoot my old lady,
D                     A                  E     
you know I caught her messin' round with another man.
(and that ain't too cool.)
C     G  D   A                   E 
Hey Joe,   I heard you shot your woman down,
you shot her down now.
C     G  D   A                   E 
Hey Joe,   I heard you shot your woman down,
you shot her down in the ground.
C            G
Yes I did, I shot her,
D                     A                   E 
you know I caught her messin' round with another man.
C          G                 
Oh yes I did i shot her,
D                        A     E     
you know I caught my old lady messin round town.
(And I gave her the gun - I shot her!)

(Solo)

etc...

11 Comments

Leave a Reply

Ce site utilise Akismet pour réduire les indésirables. En savoir plus sur comment les données de vos commentaires sont utilisées.