Jean Philippe Verdin

Jean Philippe Verdin – Little sister (BO film lol)

Vidéo guitare et chant, tablature gratuite, accords, paroles de la chanson “little sister” (bande originale du film lol) de Jean Philippe Verdin.

Tablature :

   A                 F#m               C#m               D
e|-----0-------0---|-----------------|-----4-------4---|-----5-----------|
B|-----2-------2---|-----2-------2---|-----5-------5---|-----7-----------|
G|---2---2---2---2-|-----2-------2---|---6---6---6---6-|---7---7---7---6-|
D|-----------------|---4---4---4---4-|-----------------|-----------------|
A|-0-------0-------|-----------------|-4-------4-------|-5-------5---4---|
E|-----------------|-2-------2-------|-----------------|-----------------|

   Bm                E       E4        E                 A
e|-----2-------2---|-----------------|-----------------|-----0-------0---|
B|-----3-------3---|-----0-------0---|-----0-------0---|-----2-------2---|
G|---4---4---4---4-|-----1-------2---|-----1-------1---|---2---2---2---2-|
D|-----------------|---2---2---2---2-|---2---2---2---2-|-----------------|
A|-2-------2-------|-----------------|-----------------|-0-------0-------|
E|-----------------|-0-------0-------|-0-------0-------|-----------------|

   F#m               C#m               F#m               C#m
e|-----------------|-----4-------4---|-----------------|-----4-------4---|
B|-----2-------2---|-----5-------5---|-----2-------2---|-----5-------5---|
G|-----2-------2---|---6---6---6---6-|-----2-------2---|---6---6---6---6-|
D|---4---4---4---4-|-----------------|---4---4---4---4-|-----------------|
A|-----------------|-4-------4-------|-----------------|-4-------4-------|
E|-2-------2-------|-----------------|-2-------2-------|-----------------|

   Bm                E                 D                 Dm
e|-----2-------2---|-----------------|-----------------|-----------------|
B|-----3-------3---|-----0-------0---|-----------------|-----------------|
G|---4---4---4---4-|-----1-------1---|-----2-------2---|-----2-------2---|
D|-----------------|---2---2---2---2-|-----4-------4---|-----3-------3---|
A|-2-------2-------|-----------------|---5---5---5---5-|---5---5---5---5-|
E|-----------------|-0-------0-------|-5-------5-------|-5-------5-------|

Accords, paroles :

A         F#m
We used to say
C#m7
That we were
D
Brother and sister
Bm
We used to think..
E     E6                         A
Nothing ...
E     E6
...
A
was even bitter

F#m             C#m7
Today, i break, my promises
F#m             C#m7
to stay out of the emptyness
Bm                         E
Today let's make our promises
D          Dm
For tomorrow

we used to play
All the games
where no one's the winner
We used to lie
And make lies
Some live in better

Today i break my promises
To stay out of the emptyness
Today let's make our promises
for tomorrow

A   C#m7   F#m  A  C#m   F#m
La lalalalala la

La lalalala la
La lalalala la
C#m        D
La lalalala

We used to swear
That we were
Brother and sister
We always leave
but you, we'll take me out there

Today, i break, my promises
To stay, out of the emptyness
Today let's make our promises
for tomorrow

A   C#m7   F#m  A  C#m   F#m
La lalalalala la

La lalalala la
La lalalala la
C#m        D
La lalalala

Outro : en arpèges
A   C#m7   F#m  A  C#m   F#m
La lalalalala la

La lalalala la
La lalalala la
C#m        D
La lalalala

Dm A

44 Comments

Leave a Reply

Ce site utilise Akismet pour réduire les indésirables. En savoir plus sur comment les données de vos commentaires sont utilisées.