Jean Jacques Goldman

Jean Jacques Goldman – Elle attend

Tablature guitare de la chanson “Elle attend” de Jean Jacques Goldman.

Intro : 

C  D2  Em  C  D2  Em

E------0-----0-----0-2-3-2-0-------0-----0-----0-2-0---0-------------------
B----1-----------0-----------3---1-----------0-------0---2-----------------
G--0-------2-------------------0-------2-----------------------------------
D--------0-----2---------------------0-----2-------------------------------
A--------------------------------------------------------------------------
E--------------------------------------------------------------------------


Couplet : 

C  D2  Em
E------------0------------0-------------0-2-0---0----
B----------1---1------------3---------0-------0------
G--------0--------------2-------------------------2-- (x2)
D---------------------0-------------2----------------
A----------------------------------------------------
E----------------------------------------------------

Elle attend que le monde change
Elle attend que changent les temps 

C  D2  Em
E------------0------------0-------------0-2-0-----3-----2--
B----------1---1------------3---------0-------0------------
G--------0--------------2----------------------------------
D---------------------0-------------2----------------------
A----------------------------------------------------------
E----------------------------------------------------------

Elle attend que ce monde étrange se perde et 

C D2 C
E-----0-------0---------------0---------------0----------0------0-2-0---0---
B---1---1-------3-----------3---3---3-------3----------3------0-------0-----
G-0---------2-------------0-------0---0---0----------2--------------------2-
D---------0----------------------------------------0--------2---------------
A-----------------------3---------------3-----------------------------------
E---------------------------------------------------------------------------

Que tournent les vents, inexorablement elle attend 



C  D  Em
Elle attend que le monde change
C  D  Em
Elle attend que changent les temps
C  D  Em 
Elle attend que ce monde étrange 
C  D  C
Se perde et que tournent les vents
D  Em 
Inexorablement, elle attend. 

Elle attend que l'horizon bouge
Elle attend que changent les gens
Elle attend comme un coup de foudre
Le règne des anges innocents
Inexorablement, elle attend. 

Elle attend que la grande roue tourne
Tournent les aiguilles du temps
Elle attend sans se résoudre
En frottant ses couverts en argent
Inexorablement, elle attend. 

G
Et elle regarde des images 
Et lit des histoires d'avant
Em
D'honneur et de grands équipages
C D
Où les bons sont habillés de blanc 

Et elle s'invente des voyages
Entre un fauteuil et un divan
D'eau de rose et de passion sage
Aussi purs que ces vieux romans
Aussi grands que celui qu'elle attend. 

Elle attend que le monde change
Elle attend que changent les gens
Elle attend que ce monde étrange
Se perde et que tournent les vents
Inexorablement, elle attend.

One Comment

Leave a Reply

Ce site utilise Akismet pour réduire les indésirables. En savoir plus sur comment les données de vos commentaires sont utilisées.