Jean Jacques Goldman

Jean Jacques Goldman – Bonne idée

Vidéo guitare et chant, tablature gratuite, accords, paroles de la chanson «Bonne idée» de Jean-Jacques Goldman.

Tablature : accords, paroles

Intro :

E||-----8--7---7-7-7---5-5-x-5---3-----------3-----|
B||-----8--8---8-8-8---7-7-x-7---5-------3-5---5-3-|
G||-3/9-9--7---7-7-7---7-7-x-7---4---4/5-----------|
D||------------------------------------------------|
A||------------------------------------------------|
E||------------------------------------------------|


E||-----8--7---7-7-7---5-5-x-5---3--3-x-3-3-x-3----|
B||-----8--8---8-8-8---7-7-x-7---5--5-x-5-5-x-5----|
G||-3/9-9--7---7-7-7---7-7-x-7---4--4-x-4-4-x-4----|
D||------------------------------------------------|
A||------------------------------------------------|
E||------------------------------------------------|


E||-----8--7---7-7-7---5-5-x-5---3-----------3-----|
B||-----8--8---8-8-8---7-7-x-7---5-------3-5---5-3-|
G||-3/9-9--7---7-7-7---7-7-x-7---4---4/5-----------|
D||------------------------------------------------|
A||------------------------------------------------|
E||------------------------------------------------|


E||-----8--7---7-7-7---5-5-x-5---3--3-x-3-3-x-3----|
B||-----8--8---8-8-8---7-7-x-7---3--3-x-3-3-x-3----|
G||-3/9-9--7---7-7-7---7-7-x-7---5--5-x-5-5-x-5----|
D||------------------------------5--5-x-5-5-x-5----|
A||------------------------------3--3-x-3-3-x-3----|
E||------------------------------3--3-x-3-3-x-3----|


C	       G	    D  D4      Em
Un début de janvier s'y j'ai bien su compter
C	  G           D  D4	     Em
Reste de fête ou bien voeux très appuyés
De Ruth ou de Moîshé lequel a eu l'idéé
Qu'importe si j'ai gagné la course et parmis des milliers
Nous avons tous été vainqueur même le dernier des derniers
Une fois au moins les meilleurs nous qui sommes nés
Au creux de nos mères qu'il fait bon murir
Et puis j'ai vu de la lumière alors je suis sorti... et j'ai dit

Intro  :
Bonne idée...

Y'avait du soleil des parfums de la pluie
Chaque jour un nouveau soleil chaque jour une autre nuit
Des routes et des motards et des matchs de rugby
Des spaghetti, Frédérique Dard et Johnny Winter aussi
On m'a dit c'est qu'une étincelle avant l'oscurité
Juste un passage un arc en ciel une étrange absurdité
Des frères des tendres des trésors à chercher
Des vertiges apprendre à comprendre et des filles à carresser
...on s'est dit

A	      G		   D  D4      Em
Et puis y' atoi qui débarque en ouvrant grand mes rideaux
C	  G	       D  D4	      Em
Et des flots de couleurs éclatent et le beau semble bien plus beau
C	      G	       D  D4	    Em
Et rien vraiment ne change mais tout est différent
C		   G		      D  D4	     Em
Comme ces festins qu'on mange seul ou en les partageant

Intro  :
Bonne idée...

Pont :

E||-------11-10---10-10-10----8--8-x--8---6------------6-----|
B||-------11-11---11-11-11---10-10-x-10---8--------6-8---8-6-|
G||--6/12-12-10---10-10-10---10-10-x-10---7----7/8-----------|
D||----------------------------------------------------------|
A||----------------------------------------------------------|
E||----------------------------------------------------------|


E||--------11-10---10-10--8-----------9-8---8-8-6------------|
B||--------11-11---11-11-10-----------9-9---9-9-8------------|
G||--10/12-12-10---10-10-10-----8/10-10-8---8-8-8------------|
D||----------------------------------------------------------|
A||----------------------------------------------------------|
E||----------------------------------------------------------|


Je marchais au hasard le soir était tombé
Avec mon sac et ma guitare j'étais un peu fatigué
Tout était si désert ou me désaltérer?
Et puis j'ai vu de la lumière et je vous ai trouvé

Outro :

E||-----8--7---7-7-7---5-5-x-5---3-----------3-----|
B||-----8--8---8-8-8---7-7-x-7---5-------3-5---5-3-|
G||-3/9-9--7---7-7-7---7-7-x-7---4---4/5-----------|
D||------------------------------------------------|
A||------------------------------------------------|
E||------------------------------------------------|


E||-----8--7---7-7-7---5-5-x-5---3--3-x-3-3-x-3----|
B||-----8--8---8-8-8---7-7-x-7---5--5-x-5-5-x-5----|
G||-3/9-9--7---7-7-7---7-7-x-7---4--4-x-4-4-x-4----|
D||------------------------------------------------|
A||------------------------------------------------|
E||------------------------------------------------|


E||-----8--7---7-7-7---5-5-x-5---3-----------3-----|
B||-----8--8---8-8-8---7-7-x-7---5-------3-5---5-3-|
G||-3/9-9--7---7-7-7---7-7-x-7---4---4/5-----------|
D||------------------------------------------------|
A||------------------------------------------------|
E||------------------------------------------------|


				  	  Bonne idée
E||-----8--7---7-7-7---5-5-x-5----------3----------------3--|
B||-----8--8---8-8-8---7-7-x-7--------3------------------3--|
G||-3/9-9--7---7-7-7---7-7-x-7------5--------------------5--|
D||-------------------------------5----------------------5--|
A||------------------------------------------------------x--|
E||------------------------------------------------------x--|

6 Comments

Leave a Reply

Ce site utilise Akismet pour réduire les indésirables. En savoir plus sur comment les données de vos commentaires sont utilisées.