Jack Johnson

Jack Johnson – You and your heart

Vidéo guitare et chant, tablature gratuite, accords, paroles de la chanson «You and your heart» de Jack Johnson.

Tablature, accords, paroles

Riff:
e------------------------------------------------------------------|
B------------------------------------------------------------------|
G------------------------------------------------------------------|
D---11--11--11--11-11-11-11-9----------------------------------8---|
A------------------------------12--10--10--10--10-10-10-10-12------|
E------------------------------------------------------------------|

e------------------------------------------------------------------|
B------------------------------------------------------------------|
G------------------------------------------------------------------|
D------------------------------------------------------------------|
A----------------------9--10--9------------------------9--10--9----|
E-10--10--10--10-10-10------------10--10--10--10-10-10-------------|



A                               G                          D
Watch you when you say what you are and when you blame everyone,
D
You broken king
A                                       G                             D
Watch you change the frame or watch you when you take your aim at the sum,
D
Of everything


Refrain:
      G              A              D            G
Cause you and your heart shouldn't feel so far apart
           G              A                  D           	       G   G#
You can choose what you take why you gotta break and make it feel so hard

RIFF x2

You lay there in the street
Like broken glass reflecting pieces of the sun
But you're not the flame
You got the people passing by
Because you know what you don't like
It's just so easy, it's just so easy

Refrain X2

      G              A              D            G
Cause you and your heart shouldn't feel so far apart
           G              A                  D           	       G
You can choose what you take why you gotta break and make it feel so hard

E

                A             D
You draw so many lines in the sand
          A             D
Lost the fingernails on your hands
           A              D
How you're gonna scratch any backs?
       A                   D                E
Better hope that time will take our lines away
E
Take all our lines and

A          D        A        D
Hope that time will take our lines and
A          D        A        D      E
Hope that time will take our lines away
E
Take all our lines away

A

2 Comments

Leave a Reply

Ce site utilise Akismet pour réduire les indésirables. En savoir plus sur comment les données de vos commentaires sont utilisées.