Green day

Green Day – Wake me up when september ends

Vidéo guitare et chant, tablature gratuite, accords, paroles de la chanson «Wake me up when september ends» de Green Day.

Tablature :
{Intro
{e| |----------------|----------------|----------------|----------------|
{B| |----3-----3-----|----3-----3-----|----3-----3-----|----3-----3-----|
{G| |--0-----0-------|--0-----0-------|--0-----0-------|--0-----0-------|
{D| |5-----5---------|5-----5---------|5-----5---------|5-----5---------|
{A| |----------------|----------------|----------------|----------------|
{E| |----------------|----------------|----------------|----------------|
{Verse 1
{e| |----------------|----------------|----------------|----------------|
{B| |----3-----3-----|----3-----3-----|----3-----3-----|----3-----3-----|
{G| |--0-----0-------|--0-----0-------|--0-----0-------|--0-----0-------|
{D| |5-----5---------|4-----4---------|2-----2---------|0-----0---------|
{A| |----------------|----------------|----------------|----------------|
{E| |----------------|----------------|----------------|----------------|
{
{    C                Cm               G                G
{e| |----------------|----------------|----------------|----------------|
{B| |----5-----5-----|----4-----4-----|----3-----3-----|----3-----3-----|
{G| |----5-5---5---5-|--5---5---5---0-|----0-0---0---0-|----0-0---0---0-|
{D| |--5-------5-----|--------5-----0-|--0-------0-----|--0-------0-----|
{A| |3-------3-------|3---------------|----------------|----------------|
{E| |----------------|----------------|3-------3-------|3-------3-------|
Rejouer couplet 1 et terminer                           G       G/Gb     
par          |----3-----------|
ceci >  |----3-------3-0-|
>  |----0-0-----0---|
>  |--0-------------|
|----------0-----|
|3-------2-------|
Bridge
Em               Bm               C                G       G/Gb 
e| |----------------|----------------|----0-----0-----|----3-----------|
B| |----0-----0-----|----3-----3-----|----1-1---1-----|----3-------3-0-|
G| |----0-0---0-----|----4-----4-----|--0-------0---0-|----0-0-----0---|
D| |--2-------2---0-|--4---4-------4-|--------------0-|--0-------------|
A| |----------------|2-------2-------|3-------3-------|----------0-----|
E| |0-------0-------|----------------|----------------|3-------2-------|
Em               Bm               C                D 
e| |----------------|----------------|----0-----0-----|----2-----2-----|
B| |----0-----0-----|----3-----3-----|----1-1---1-----|----3-3---3-----|
G| |----0-0---0-----|----4-----4-----|--0-------0---0-|--2---2---2---0-|
D| |--2-------2---0-|--4---4-------4-|----------------|0-------0-------|
A| |----------------|2-------2-------|3-------3-------|----------------|
E| |0-------0-------|----------------|----------------|----------------|
Rejouer couplet 1
Rejouer Intro
{Refrain
{    C                Cm               G5
{e| |----------------|----------------|----------------|----------------|
{B| |5-5-5-5-5-5-5-5-|4-4-4-4-4-4-4-4-|----------------|----------------|
{G| |5-5-5-5-5-5-5-5-|5-5-5-5-5-5-5-5-|----------------|----------------|
{D| |5-5-5-5-5-5-5-5-|5-5-5-5-5-5-5-5-|5-5-5-5-5-5-5-5-|5-5-5-5-5-5-5-5-|
{A| |3-3-3-3-3-3-3-3-|3-3-3-3-3-3-3-3-|5-5-5-5-5-5-5-5-|5-5-5-5-5-5-5-5-|
{E| |----------------|----------------|3-3-3-3-3-3-3-3-|3-3-3-3-3-3-3-3-|
C                Cm               G5                       G5/Gb
e| |----------------|----------------|----------------|----------------|
B| |5-5-5-5-5-5-5-5-|4-4-4-4-4-4-4-4-|----------------|----------------|
G| |5-5-5-5-5-5-5-5-|5-5-5-5-5-5-5-5-|----------------|----------------|
D| |5-5-5-5-5-5-5-5-|5-5-5-5-5-5-5-5-|5-5-5-5-5-5-5-5-|5-5-5-5-5-5-5-5-|
A| |3-3-3-3-3-3-3-3-|3-3-3-3-3-3-3-3-|5-5-5-5-5-5-5-5-|5-5-5-5-5-5-5-5-|
E| |----------------|----------------|3-3-3-3-3-3-3-3-|3-3-3-3-2-2-2-2-|
Distorted Bridge
E5               Bm               C5               G5      G5/Gb 
e| |----------------|----------------|----------------|----------------|
B| |----------------|----3-----------|----------------|----------------|
G| |----------------|4-4-4-4-4-4-4-0-|5-5-5-5-5-5-5-0-|----------------|
D| |2-2-2-2-2-2-2-2-|4-4-4-4-4-4-4-0-|5-5-5-5-5-5-5-0-|5-5-5-5-5-5-5-0-|
A| |2-2-2-2-2-2-2-2-|2-2-2-2-2-2-2-0-|3-3-3-3-3-3-3-0-|5-5-5-5-5-5-5-0-|
E| |0-0-0-0-0-0-0-0-|----------------|----------------|3-3-3-3-2-2-2-0-|
E5               Bm               C5               D5            
e| |----------------|----------------|----------------|----------------|
B| |----------------|----3-3-3-3-3---|----------------|----------------|
G| |----------------|4-4-4-4-4-4-4-0-|5-5-5-5-5-5-5-5-|7-7-7-7-7-7-7-7-|
D| |2-2-2-2-2-2-2-2-|4-4-4-4-4-4-4-0-|5-5-5-5-5-5-5-5-|7-7-7-7-7-7-7-7-|
A| |2-2-2-2-2-2-2-2-|2-2-2-2-2-2-2-0-|3-3-3-3-3-3-3-3-|5-5-5-5-5-5-5-5-|
E| |0-0-0-0-0-0-0-0-|----------------|----------------|----------------|
e| |----------------|------------3---|----------------|----------------|
B| |----3-----3-----|----3-----3-----|----3-----3-----|----3-----3-----|
G| |--0-----0-------|--0-----0-------|--0-----0-------|--0-----0-------|
D| |5-----5---------|4-----4---------|2-----2---------|0-----0---------|
A| |----------------|----------------|----------------|----------------|
E| |----------------|----------------|----------------|----------------|
C                Cm               G5                       G5/Gb
e| |----------------|----------------|----------------|----------------|
B| |5-5-5-5-5-5-5-5-|4-4-4-4-4-4-4-4-|----------------|----------------|
G| |5-5-5-5-5-5-5-5-|5-5-5-5-5-5-5-5-|----------------|----------------|
D| |5-5-5-5-5-5-5-5-|5-5-5-5-5-5-5-5-|5-5-5-5-5-5-5-5-|5-5-5-5-5-5-5-5-|
A| |3-3-3-3-3-3-3-3-|3-3-3-3-3-3-3-3-|5-5-5-5-5-5-5-5-|5-5-5-5-5-5-5-5-|
E| |----------------|----------------|3-3-3-3-3-3-3-3-|3-3-3-3-2-2-2-2-|
Paroles :
Wake Me Up When September Ends
Summer has come and past.
The innocent can never last.
Wake me up when September ends.
Like my fathers come to pass,
Seven years has gone so fast.
Wake me up when September ends.
Here comes the rain again,
Falling from the stars.
Drenched in my pain again,
Becoming who we are.
As my memory rests
But never forgets what I lost.
Wake me up when September ends.
Summer has come and past.
The innocent can never last.
Wake me up when September ends.
Ring out the bells again.
Like we did when spring began.
Wake me up when September ends.
Here comes the rain again,
Falling from the stars.
Drenched in my pain again,
Becoming who we are.
As my memory rest,
But never forgets what I lost.
Wake me up when September ends.
Summer has come and past.
The innocent can never last.
Wake me up when September ends.
Like my fathers come to pass.
Twenty years has gone so fast.
Wake me up when September ends.[x3]

One Comment

Leave a Reply

Ce site utilise Akismet pour réduire les indésirables. En savoir plus sur comment les données de vos commentaires sont utilisées.