Deep Purple

Deep Purple – Smoke on the water

Vidéo guitare et chant, tablature gratuite, accords, paroles de la chanson “Smoke on the water” de Deep Purple.

Tablature
||------------------|----------------|----------------|--------------------||
||o-----------------|----------------|----------------|-------------------o||
||------------------|----------------|----------------|--------------------||
||--4-----5----7----|---4----5----8--|--3x------------|--------------------||
||o-4-----5----7----|---4----5----8--|----------------|-------------------o||
||--2-----3----5----|---2----3----6--|----------------|--------------------||
E E E E Q  E E   E E E E Q  Q    E E E E Q  E E   E Q.   +Q    Q
|----------------|---------------|----------------|--------------------|
|----------------|---------------|----------------|--------------------|
|-0---3---5----0-|---3---6-5-----|-0---3---5----3-|---0----(0)---------|
|-0---3---5----0-|---3---6-5-----|-0---3---5----3-|---0----(0)--(5)\---|
|----------------|---------------|----------------|-------------(5)\---|
|----------------|---------------|----------------|--------------------|
COUPLET
PM----------------------------------------------|     PM------------|
E E e E E E e E   E E e E E E e E   E E e E E E e E   E E e E E E e E
|-----------------|-----------------|-----------------|------------------|
|-----------------|-----------------|-----------------|------------------|
|-----------------|-----------------|-0---0-----------|---------0---0----|
|-----5-------5---|-----5-------5---|---0-----3---3---|-----5-----0------|
|---5-------5-----|---5-------5-----|-----------3-----|---5--------------|
|-3-------3-------|-3-------3-------|-----------------|-3----------------|
PM------------------------------------------------------------------|
E E e E E E e E   E E e E E E e E   E E e E E E e E   E E e E E E e E
|-----------------|-----------------|-----------------|------------------|
|-----------------|-----------------|-----------------|------------------|
|-----------------|-----------------|-----------------|------------------|
|-----5---5---5---|-----5-------5---|-----5-------5---|-----5-------3----|
|---5-------5-----|---5-------5-----|---5-------5-----|---5-------3------|
|-3---------------|-3-------3-------|-3-------3-------|-3-------1--------|
PM------------------------------------------------------------------|
E E e E E E e E   E E e E E E e E   E E e E E E e E   E E e E E E e E
|-----------------|-----------------|-----------------|------------------|
|-----------------|-----------------|-----------------|------------------|
|-----------------|-----------------|-----------------|------------------|
|-----5-------5---|-----5-------5---|-----5-------5---|-----5---3---3----|
|---5-------5-----|---5-------5-----|---5-------5-----|---5-------3------|
|-3-------3-------|-3-------3-------|-3-------3-------|-3----------------|
PM---------------------------------------------------
E E e E E E e E   E E e E E E e E   E E e E E E e E
|-----------------|-----------------|-----------------|
|-----------------|-----------------|-----------------|
|-----------------|-----------------|-----------------|
|-----5-------5---|-----5-------5---|-----5-------5---|
|---5-------5-----|---5-------5-----|---5-------5-----|
|-3-------3-------|-3-------3-------|-3-------3-------|
---------------------------------|
E E e E E E e E   E E e E E E e E
|-----------------|-------------------||
|-----------------|-------------------||
|-----------------|-------------------||
|-----5---3---3---|-----5-------5-----||
|---5-------3-----|---5-------5-------||
|-3---------------|-3-------3---------||
REFRAIN
Q  Q  H      Q  Q  H      Q  E E +H
|------------|------------|---------------|
|------------|------------|---------------|
|-------5----|------------|------0-(0)----|
|----5-------|-------6----|----0----------|
|-3----------|----6-------|---------------|
|------------|-4----------|-3-------------|
+W           Q  Q  H      Q  Q  Q.  E
|------------|------------|---------------|
|------------|------------|---------------|
|-(0)--------|-------5----|---------------|
|------------|----5-------|-------6-------|
|------------|-3----------|----6----------|
|------------|------------|-4-------------|
E E E E Q  E E   E E E E Q.   E   E E E E Q.   E   +E  Q.   +Q   Q
|----------------|----------------|----------------|-------------------|
|----------------|----------------|----------------|-------------------|
|-----3---5------|---3---6-5------|-----3---5----3-|-(3)---------------|
|-5---3---5----5-|---3---6-5------|-5---3---5----3-|-(3)-5----(5)------|
|-5------------5-|----------------|-5--------------|-----5----(5)------|
|----------------|----------------|----------------|-------------------|
E E E E Q  E E   E E E E Q  Q    E E E E Q.   E   E Q.   +Q   Q
|----------------|---------------|----------------|------------------||
|----------------|---------------|----------------|------------------||
|-----3---5------|---3---6-5-----|-----3---5----3-|-------------5\---||
|-5---3---5----5-|---3---6-5-----|-5---3---5----3-|---5----(5)--5\---||
|-5------------5-|---------------|-5--------------|---5----(5)--5\---||
|----------------|---------------|----------------|------------------||
COUPLET
E E e E E E e E   E E e E E E e E   E E e E E E e E   E E e E E E e E  3x
||------------------|-----------------|-----------------|------------------||
||o-----------------|-----------------|-----------------|-----------------o||
||------------------|-----------------|-----------------|------------------||
||------5-------5---|-----5-------5---|-----5-------3---|-----5-------5----||
||o---5-------5-----|---5-------5-----|---5-------3-----|---5-------5-----o||
||--3-------3-------|-3-------3-------|-3-------1-------|-3-------3--------||
REFRAIN
<
Q  Q  H      Q  Q  H      W          +W           Q  Q  H      Q  Q  Q.   E
|------------|------------|----------|------------|------------|---------------|
|------------|------------|----------|------------|------------|---------------|
|-------5----|------------|-0--------|-(0)--------|-------5----|---------------|
|----5-------|-------6----|----------|------------|----5-------|-------6-------|
|-3----------|----6-------|----------|------------|-3----------|----6----------|
|------------|-4----------|-3--------|-(3)--------|------------|-4-------------|
E E E E Q  E E   E E E E Q.   E   E E E E Q.   E   +E  Q.   +Q   Q
|----------------|----------------|----------------|-----------------|
|----------------|----------------|----------------|-----------------|
|-----3---5------|---3---6-5------|-----3---5----3-|-(3)-------------|
|-5---3---5----5-|---3---6-5------|-5---3---5----3-|-(3)-5----(5)----|
|-5------------5-|----------------|-5--------------|-----5----(5)----|
|----------------|----------------|----------------|-----------------|
E E E E Q  E E   E E E E Q.   E   E E E E Q.   E   E  Q.   +Q    E   E
|----------------|----------------|----------------|----------------------||
|----------------|----------------|----------------|----------------------||
|-----3---5------|---3---6-5------|-----3---5----3-|------------------10--||
|-5---3---5----5-|---3---6-5------|-5---3---5----3-|----5----(5)--12------||
|-5------------5-|----------------|-5--------------|----5----(5)----------||
|----------------|----------------|----------------|----------------------||
|
Guitare Solo...
E E E E Q  E E   E E E E Q.   E   E E E E Q.   E   +E  Q.   +Q    E   E
|----------------|----------------|----------------|-----------------------|
|----------------|----------------|----------------|-----------------------|
|-----3---5------|---3---6-5------|-----3---5----3-|-(3)-----------(5)\----|
|-5---3---5----5-|---3---6-5------|-5---3---5----3-|-(3)-5----(5)--(5)\----|
|-5------------5-|----------------|-5--------------|-----5----(5)--(5)\----|
|----------------|----------------|----------------|-----------------------|
COUPLET
PM----------------------------------------------------------------|
E E e E E E e E   E E e E E E e E   E E e E E E e E   E E e E E e Q
|-----------------|-----------------|-----------------|-----------------|
|-----------------|-----------------|-----------------|-----------------|
|-----------------|-----------------|-----------------|-----------------|
|-----5-------5---|-----5-------5---|-----5-------3---|-----5-3---------|
|---5-------5-----|---5-------5-----|---5-------3-----|---5-------5-----|
|-3-------3-------|-3-------3-------|-3-------1-------|-3-------3-------|
PM--------------------------------------------------------------------|
E E e E E E e E   E E e E E E e E   E E e E E E e E   S S E e E E E e E
|-----------------|-----------------|-----------------|-------------------|
|-----------------|-----------------|-----------------|-------------------|
|-----------------|-----------------|-----------------|-------------------|
|-----5-------5---|-----5-------5---|-----5-------3---|-----5-5-------5---|
|---5-------5-----|---5-------5-----|---5-------3-----|---5---------5-----|
|-3-------3-------|-3-------3-------|-3-------1-------|-3---------3-------|
PM------------------------------------------------------------------|
E E e E E E e E   E E e E E E e E   E E e E E E e E   E E e E E E e E
|-----------------|-----------------|-----------------|------------------|
|-----------------|-----------------|-----------------|------------------|
|-----------------|-----------------|-----------------|------------------|
|-----5-------5---|-----5-------5---|-----5---3---3---|-----5-------5----|
|---5-------5-----|---5-------5-----|---5-------3-----|---5-------5---5--|
|-3-------3-------|-3-------3-------|-3---------------|-3-------3--------|
PM------------------------------------------------------------------|
E E e E E E e E   E E e E E E e E   E E e E E E e E   E E e E E E e E
|-----------------|-----------------|-----------------|------------------|
|-----------------|-----------------|-----------------|------------------|
|-----------------|-----------------|-----------------|------------------|
|-----5-------5---|-----5-------5---|-----5-------3---|-----5-------5----|
|---5-------5---5-|---5---5---5---5-|---5---5---3---3-|---5---5---5------|
|-3-------3-------|-3-------3-------|-3-------1-------|-3-------3-----3--|
Out-Refrain
Q  Q  H      Q  Q  Q.   E   Q  Q  E Q.
|------------|--------------|-------3------|
|------------|--------------|--------------|
|-------5----|--------------|----0----0----|
|----5-------|-------6------|----0---------|
|-3----------|----6---------|--------------|
|------------|-4------------|-3------------|
+W           Q  Q  H      Q  Q  H
|------------|------------|------------|
|------------|------------|------------|
|-(0)--------|-------5----|------------|
|------------|----5-------|-------6----|
|------------|-3----------|----6-------|
|------------|------------|-4----------|
4/4
E E E E Q.   E   E E E E Q.   E   E E E E Q.   E   +E  Q.   +Q.   E   3x
||------------------|----------------|----------------|--------------------||
||o-----------------|----------------|----------------|-------------------o||
||------------------|----------------|----------------|--------------------||
||--4-----5----7----|---4----5----8--|--3x------------|--------------------||
||o-4-----5----7----|---4----5----8--|----------------|-------------------o||
||--2-----3----5----|---2----3----6--|----------------|--------------------||
PM----------------------------------------------|
E E e E E E e E   E E e E E E e E   E E e E E E e E   E Q.   +Q    Q
|-----------------|-----------------|-----------------|--------------------|
|-----------------|-----------------|-----------------|--------------------|
|-----------------|-----------------|-----------------|--------------------|
|-----5-------5---|-----5-------5---|-5---5---3---3---|---5----(5)--(5)\---|
|---5-------5-----|---5-------5-----|---5-------3-----|---5----(5)--(5)\---|
|-3-------3-------|-3-------3-------|-----------------|--------------------|
Paroles :
We all came out to montreux
On the lake geneva shoreline
To make records with a mobile
We didnt have much time
Frank zappa and the mothers
Were at the best place around
But some stupid with a flare gun
Burned the place to the ground
Smoke on the water, fire in the sky
They burned down the gambling house
It died with an awful sound
Funky claude was running in and out
Pulling kids out the ground
When it all was over
We had to find another place
But swiss time was running out
It seemed that we would lose the race
Smoke on the water, fire in the sky
We ended up at the grand hotel
It was empty cold and bare
But with the rolling truck stones thing just outside
Making our music there
With a few red lights and a few old beds
We make a place to sweat
No matter what we get out of this
I know well never forget
Smoke on the water, fire in the sky

3 Comments

Leave a Reply

Ce site utilise Akismet pour réduire les indésirables. En savoir plus sur comment les données de vos commentaires sont utilisées.