Chansons enfantines

Chanson enfantine – Au clair de la lune

Tablature gratuite de la chanson “Au clair de la lune”, chanson enfantine.

Clip vidéo

Tablature, accords:

E---------------------------------------------
B--------------0--------0---------------------
G--0--0--0--2-----2--0-----2--2--0------------
D---------------------------------------------
A---------------------------------------------
E---------------------------------------------

E---------------------------------------------
B--------------0--------0---------------------
G--0--0--0--2-----2--0-----2--2--0------------
D---------------------------------------------
A---------------------------------------------
E---------------------------------------------

E---------------------------------------------
B---------------------------------------------
G--2--2--2--2--------2--0---------------------
D--------------2--2--------4--2--0------------
A---------------------------------------------
E---------------------------------------------

E---------------------------------------------
B--------------0--------0---------------------
G--0--0--0--2-----2--0-----2--2--0------------
D---------------------------------------------
A---------------------------------------------
E---------------------------------------------

Paroles:

au clair de la lune mon ami pierrot
prete moi ta plume pour ecrire un mot
ma chandelle est morte je n'ai plus de feu
ouvre moi la porte pour l'amour de dieu

au clair de la lune pirrot repondit:
"je n'ai point de plume je suis dans mon lit;
va chez ma voisine je crois qu'elle y est,
car dans la cuisine on bat le briquet

2 Comments

Leave a Reply

Ce site utilise Akismet pour réduire les indésirables. En savoir plus sur comment les données de vos commentaires sont utilisées.