ACDC

ACDC – Highway to hell

Vidéo guitare et chant, tablature gratuite, accords, paroles de la chanson “Highway to hell” de ACDC.

Tablature : accords, paroles

INTRO:

            A                 D/f#  G    
E----------------------------------------
B-----------2--2--2-----------3--3--3----
G-----------2--2--2-----------2--2--0----
D-----------2--2--2-----------0--0--0----
A-----------0--0--0----------------------
E-----------------------------2--2--3----


  D/f#  G     D/F#  G     D/F#   A
--------------------------------------
--3--3--3-----3--3--3------------2--2-
--2--2--0-----2--2--0------2-----2--2-
--0--0--0-----0--0--0------0-----2--2-
---------------------------------0--0-
--2--2--3-----2--2--3------2----------



A A A
              D D/F# G              D D/F# G
     Livin' easy,        livin' free,
D D/F# G       D/F#    A A
     Season ticket on a one way ride
A A A           D D/F# G             D D/F# G
     Askin' nothin,      leave me be.
  D D/F# G     D/F#   A A
     Takin' ev'rythin' in my stride.



     Don't need reason, don't need rhyme,
     Ain't nothin' i'd rather do.
     goin' down, party time.        E5
     my friends are gonna be there too.


Refrain
             A    A  A   D/A      G   --º
    i'm on a highway to hell             
    D/F#     A    A  A   D/A      G
    on the   highway to hell          --º


    no stop signs, speed limit,
    nobody's gonna slow me down.
    like a wheel, gonna spin it.
    nobody's gonna mess me around.

    Hey, satan, pay'n' my dues,
    playin' in a rockin' band.
    hey, momma, look at me.
    I'm on my way to the promised land.

12 Comments

Leave a Reply

Ce site utilise Akismet pour réduire les indésirables. En savoir plus sur comment les données de vos commentaires sont utilisées.