Travis

Travis – Reminder

Tablature guitare de la chanson “Reminder” de Travis.

Intro:

    F		    Dm		    C		    Bb
E-|-----------------------------------------------------------------| (A1)
B-|-----------------------------------------------------------------|
G-|---5---5---5---5---2---2---2---2---------------------------------|
D-|-3---3---3---3---0---0---0---0-----5---5---5---5---3---3---3---3-|
A-|---------------------------------3---3---3---3---1---1---1---1---|
E-|-----------------------------------------------------------------|
    F
E-|---------------------------------| (A2)
B-|---------------------------------|
G-|---2---2---2---2---2---2---2---2-|
D-|-----3-------3-------3-------3---|
A-|---------------------------------|
E-|-1-------1-------1-------1-------|


COUPLET (A1 x4):
Celebrate
Don't be late
Finish what's on your plate
Be the change you wanna see
Seek the truth
Set it free

And i wanna tell you
(Rester sur Bb)

REFRAIN:
Dm
This is a reminder
C		F
This is a reminder
Dm
This is a reminder
C		F
This is a reminder

COUPLET
Why does time move so fast?
Precious things never last
Figure out
Don't forget
Only love
No regrets
And i gotta tell you

REFRAIN
This is a reminder
This is a reminder
This is a reminder
This is a reminder

PONT

E-|---------------------------------| (x2)
B-|---------------------------------|
G-|---------------------------------|
D-|---0---2---0---3---0---2---0---0-|
A-|-1---1---1---1---1---1---1---1---|
E-|---------------------------------|
    F
E-|---------------------------------|
B-|---------------------------------|
G-|---2---2---2---2---2---2---2---2-|
D-|-----3-------3-------3-------3---|
A-|---------------------------------|
E-|-1-------1-------1-------1-------|

All of the things you never noticed
All of the lines you cling to that don't mean a thing

E-|-------------------------------------------------------------| (x2)
B-|-------------------------------------------------------------|
G-|-----------------------------------------------0-------------|
D-|---0---2---0---3---0---2---0---0---2---3---2-------2---3---2-|
A-|-1---1---1---1---1---1---1---1---3---3---3---3---3---3---3---|
E-|-------------------------------------------------------------|

All of the dates that you were late for
All of the rounds you should've paid for
And i wanna tell you

REFRAIN
This is a reminder
This is a reminder
This is a reminder
This is a reminder
This is a reminder

Leave a Reply

Ce site utilise Akismet pour réduire les indésirables. En savoir plus sur comment les données de vos commentaires sont utilisées.