Tracy Chapman

Tracy Chapman – Sing for you

Vidéo guitare et chant, tablature, accords, paroles de la chanson “Sing for you” de Tracy Chapman.

Tablature : accords, paroles

Accords utilisés :
C:     032010
G:     320003
Am:    002210
F:     133211
D7:    000212
D:     000232

One, two,
One, two, three, four

[intro] x2:
    C                             G
E-||-----0-------0---3-0------0--|-----3--0--3-0---5-3-0-3--5--|
B-||----1---1--3---------1-3-----|----1------------------------|
G-||---0-------------------------|---0-------------------------|
D-||--2--------------------------|--0--------------------------|
A-||-3---------------------------|-2---------------------------|
E-||0----------------------------|3----------------------------|

    Am                            F           G
E-||-----0-------0---3-0------0--|-----1-----------3--0--0--3--|
B-||----1---1--3---------1-3-----|----1---1-------1------------|
G-||---2-------------------------|---2-----------0-------------|
D-||--2--------------------------|--3-----------0--------------|
A-||-0---------------------------|-3-----------2---------------|
E-||0----------------------------|1-----------3----------------|

C
Sweet and high at the break of dawn
G
Simple tune that you can hum along too
Am
I remember there was a time
F       G
   when I used to sing for you

C
  Do-n do do, do do do
G
  Do-n do do, do do do
Am
  Do-n do do, do do do
F  G
   I used to sing for you

C
  Do-n do do, do do do
G
  Do-n do do, do do do do
Am
  Do-n do do, do do do
F  G

C
Knew all the words to the popular songs
G
With the radio on full volume
Am
I remember there was a time
F       G
   When I used to sing for you

C
  Do-n do do, do do do
G
  Do-n do do, do do do do
Am
  Do-n do do, do do do
F  G
   I used to sing for you

C
  Do-n do do, do do do
G
  Do-n do do, do do do do
Am
  Do-n do do, do do do
F  G

Am
Forget the chorus, you’re the bridge
G                                      D7
The words and music to every-day I’ve lived
                 D
There’s nothing, I wouldn’t give
    F                G
For one more time, when I can sing for you

C
  Do-n do do, do do do
G
  Do-n do do, do do do do
Am
  Do-n do do, do do do
F      G
   Oh Yeah

C
  Do-n do do, do do do
G
  Do-n do do, do do do do
Am
  Do-n do do, do do do
F  G

C
Soft and low when the evening comes
G
Holding you, sleeping in my arms
Am
I remember there was a time
F       G
   When I used to sing for you

C
  Do-n do do, do do do
G
  Do-n do do, do do do
Am
  Do-n do do, do do do
F  G
   I used to sing for you

C
  Do-n do do, do do do
G
  Do-n do do, do do do do
Am
  Do-n do do, do do-do do do-do
F  G

C
  Do-n do do, do do do
G
  Do-n do do, do do do do
Am
  Do-n do do, do do-do do do-do
F           G
   Oh, when I used to sing for you

C   G   Am

F  G
   I used to sing for you.

C
  Do-n do do, do do do
G
  Do-n do do, do do do do
...          

Leave a Reply

Ce site utilise Akismet pour réduire les indésirables. En savoir plus sur comment les données de vos commentaires sont utilisées.