Gustavo Santaolalla

Gustavo Santaolalla – The last of us

Tablature guitare de la chanson « The last of us » de Gustavo Santaolalla.

INTRO:
e|------0-----0-----0-----0-----0-----0-----0-----0-----0-------------------|
B|----0-----0-----0-----0-----0-----0-----0-----0---12----------------------|
G|--12----12----12----12----12----12----12----12----12----------------------|
D|--------------------------------------------------------------------------|
A|--------------------------------------------------------------------------|
E|--------------------------------------------------------------------------|
e|------0-----0-----0-----0-----0-----0-----0-----0-------------------------|
B|----0-----0-----0-----0-----0-----0-----0---------------------------------|
G|--12----12----12----12----12----12----12----12----------------------------|
D|--------------------------------------------14----------------------------|
A|--------------------------------------------------------------------------|
E|--------------------------------------------------------------------------|
e|------0-----0-----0-----0-----0-----0-----0-----0-------------------------|
B|----0-----0-----0-----0-----0-----0-----0---11----------------------------|
G|--12----12----12----12----12----12----12----12----------------------------|
D|--------------------------------------------------------------------------|
A|--------------------------------------------------------------------------|
E|--------------------------------------------------------------------------|
e|------0-----0-----0-----0-----0-----0-----0-------------------------------|
B|----0-----0-----0-----0-----0-----0-----0---------------------------------|
G|--12----12----12----12----12----12----12----------------------------------|
D|--------------------------------------------------------------------------|
A|--------------------------------------------------------------------------|
E|--------------------------------------------------------------------------|
REF
e|------0-----0-----0-----0-----0-----0-----0-----0-------------------------|
B|----0-----0-----0-----0-----0-----0-----0-----0---------------------------|
G|--12----9-----14----11----12----12----12----12----------------------------|
D|--------------------------------------------------------------------------|
A|--------------------------------------------------------------------------|
E|--0-----------------------------------------------------------------------|
e|------0-----0-----0-----0--------0-----0-----0-----0----------------------|
B|----0-----0-----0-----0--------0-----0-----0-----0------------------------|
G|--12----9-----14----11----14/16----16----16----16-------------------------|
D|--------------------------------------------------------------------------|
A|--------------------------------------------------------------------------|
E|--------------------------------------------------------------------------|
e|------------0-----0-----0-----0-----0-----0-----0-----0-------------------|
B|----------0-----0-----0-----0-----0-----0-----0-----0---------------------|
G|--12h14p12----9-----14----11----12----12----12----12----------------------|
D|--------------------------------------------------------------------------|
A|--------------------------------------------------------------------------|
E|--------------------------------------------------------------------------|
e|------0-----0------------0-----0-------0--|------0-----0-----0--|
B|----0-----0------------0-----0-------0----|----0-----0-----0----|
G|--15----14-----12h14p12----9-----7h9------|--9-----9-----9------|
D|------------------------------------------|---------------------|
A|------------------------------------------|---------------------|
E|------------------------------------------|---------------------|
3x
e|-----0-----7-----10----10----10----10----9-----9-----9-----9p7------------|
B|---0-----0-----0-----0-----0-----0-----0-----0-----0-----0----------------|
G|-9-----9-----9-----9-----9-----9-----9-----9-----9-----9-------9----------|
D|--------------------------------------------------------------------------|
A|-----------------------------------------0--------------------------------|
E|-----------------0--------------------------------------------------------|
e|--8-----8-----8-----8-----7-----7-----7-----7-----------------------------|
B|------0-----0-----0-----0-----0-----0-----0-----0-------------------------|
G|----9-----9-----9-----9-----9-----9-----9-----9---------------------------|
D|--------------------------------------------------------------------------|
A|--0-----------------------------------------------------------------------|
E|--------------------------0-----------------------------------------------|
e|--10----10----10----10/12-10-9-----9-----9-----9p7------------------------|
B|------0-----0-----0--------------0-----0-----0----------------------------|
G|----9-----9-----9--------------9-----9-----9-------9----------------------|
D|--------------------------------------------------------------------------|
A|-----------------------------0--------------------------------------------|
E|--0-----------------------------------------------------------------------|
e|--8-----8-----8-----8-----7-----7-----7-----7\5p0-------------------------|
B|------0-----0-----0-----0-----0-----0-----0-------------------------------|
G|----9-----9-----9-----9-----9-----9-----9---------------------------------|
D|--------------------------------------------------------------------------|
A|--0-----------------------------------------------------------------------|
E|--------------------------0-----------------------------------------------|
e|--5-----5-----5-----5-----5-------3-----2-----0h2p0-----------------------|
B|----0-----0-----0-----0----------1--1-----1---------3h5p3-----------------|
G|------5-----5-----5-----5-------2-----2-----2-----------------------------|
D|--------------------------------------------------------------------------|
A|--0-----------------------------------------------------------------------|
E|--------------------------------------------------------------------------|
e|--2-----2-----2-----2-----2-----2-----2-----------------------------------|
B|------1-----1-----1-----1-----1-----1-------------------------------------|
G|----2-----2-----2-----2-----2-----2---------------------------------------|
D|--------------------------------------------------------------------------|
A|--------------------------------------------------------------------------|
E|--------------------------------------------------------------------------|
e|----3-----0-----0-----0-----0-----0-----0-----0---------------------------|
B|---0----0-----0-----0-----0-----0-----0-----0-----------------------------|
G|--4---4-----4-----4-----4-----4-----4-----4-------------------------------|
D|--------------------------------------------------------------------------|
A|--------------------------------------------------------------------------|
E|----------0---------------------------------------------------------------|
REF
e|------0-----0-----0-----0-----0-----0-----0-----0-------------------------|
B|----0-----0-----0-----0-----0-----0-----0-----0---------------------------|
G|--12----9-----14----11----12----12----12----12----------------------------|
D|--------------------------------------------------------------------------|
A|--------------------------------------------------------------------------|
E|--------------------------------------------------------------------------|
e|------0-----0-----0-----0--------0-----0-----0-----0----------------------|
B|----0-----0-----0-----0--------0-----0-----0-----0------------------------|
G|--12----9-----14----11----14/16----16----16----16-------------------------|
D|--------------------------------------------------------------------------|
A|--------------------------------------------------------------------------|
E|--------------------------------------------------------------------------|
e|------0-----0-----0-----0-----0-----0-----0-----0-------------------------|
B|----0-----0-----0-----0-----0-----0-----0-----0---------------------------|
G|--12----9-----14----11----12----12----12----12----------------------------|
D|--------------------------------------------------------------------------|
A|--------------------------------------------------------------------------|
E|--------------------------------------------------------------------------|
e|------0-----0------0-----------0-----0-----0-----0-----0-----0------------|
B|----0-----0------0-----0-----0-----0-----0-----0-----0-----0--------------|
G|--15----14-----12----9---9-9-----9-----9-----9-----9-----9-----9----------|
D|--------------------------------------------------------------------------|
A|--------------------------------------------------------------------------|
E|--------------------------------------------------------------------------|
e|--------|---------7----------|--------|---------7-------------------------|
B|--------|-------8------8-----|--------|-------8------8--------------------|
G|-----0--|---0--------0-----0-|-----0--|---0--------0-----0----------------|
D|----0---|-0---0----------0---|----0---|-0---0----------0------------------|
A|---7----|--------------------|---7----|-----------------------------------|
E|--8-----|--------------------|--8-----|-----------------------------------|
STRUM                         STRUM
e|-----7--|---------7----------|-----0--|---------7-------------------------|
B|----0---|-------0------0-----|----0---|-------0------0--------------------|
G|---7----|---7--------7-----7-|---7----|---7--------7-----7----------------|
D|--5-----|-5---5----------5---|--5-----|-5---5----------5------------------|
A|--------|--------------------|--------|-----------------------------------|
E|--------|--------------------|--------|-----------------------------------|
STRUM                         STRUM
e|--------|---------7----------|--------|---------7-------------------------|
B|--------|-------8------8-----|--------|-------8------8--------------------|
G|-----0--|---0--------0-----0-|-----0--|---0--------0-----0----------------|
D|----0---|-0---0----------0---|----0---|-0---0----------0------------------|
A|---7----|--------------------|---7----|-----------------------------------|
E|--8-----|--------------------|--8-----|-----------------------------------|
STRUM                         STRUM
e|-----7--|---------7----------|-----0--|---------7-------------------------|
B|----0---|-------0------0-----|----0---|-------0------0--------------------|
G|---7----|---7--------7-----7-|---7----|---7--------7-----7----------------|
D|--5-----|-5---5----------5---|--5-----|-5---5----------5------------------|
A|--------|--------------------|--------|-----------------------------------|
E|--------|--------------------|--------|-----------------------------------|
STRUM                         STRUM
e|--------|---------10---------|--------|---------10------------------------|
B|-----8--|-------8------8-----|-----8--|-------8------8--------------------|
G|----7---|---7--------7-----7-|----7---|---7--------7-----7----------------|
D|--------|-0---0----------0---|--------|-0---0----------0------------------|
A|--------|--------------------|--------|-----------------------------------|
E|--7-----|--------------------|--7-----|-----------------------------------|
STRUM                         STRUM
e|--------|---------10---------|--------|---------10------------------------|
B|--------|-------8------8-----|--------|-------8------8--------------------|
G|-----0--|---0--------0-----0-|-----0--|---0--------0-----0----------------|
D|----0---|-0---0----------0---|----0---|-0---0----------0------------------|
A|---7----|--------------------|---7----|-----------------------------------|
E|--8-----|--------------------|--8-----|-----------------------------------|
STRUM                         STRUM
e|--------|---------10---------|--------|---------10------------------------|
B|-----8--|-------8------8-----|-----8--|-------8------8--------------------|
G|----7---|---7--------7-----7-|----7---|---7--------7-----7----------------|
D|--------|-0---0----------0---|--------|-0---0----------0------------------|
A|--------|--------------------|--------|-----------------------------------|
E|--7-----|--------------------|--7-----|-----------------------------------|
STRUM                         STRUM
e|--------|---------7----------|--------|---------7-------------------------|
B|--------|-------8------8-----|--------|-------8------8--------------------|
G|-----0--|---0--------0-----0-|-----0--|---0--------0-----0----------------|
D|----0---|-0---0----------0---|----0---|-0---0----------0------------------|
A|---7----|--------------------|---7----|-----------------------------------|
E|--8-----|--------------------|--8-----|-----------------------------------|
STRUM                         STRUM
e|-----7--|---------7----------|-----0--|---------7-------------------------|
B|----0---|-------0------0-----|----0---|-------0---------------------------|
G|---7----|---7--------7-----7-|---7----|---7-------------------------------|
D|--5-----|-5---5----------5---|--5-----|-5---5-----------------------------|
A|--------|--------------------|--------|-----------------------------------|
E|--------|--------------------|--------|-----------------------------------|
REF
e|------0-----0-----0-----0-----0-----0-----0-----0-------------------------|
B|----0-----0-----0-----0-----0-----0-----0-----0---------------------------|
G|--12----9-----14----11----12----12----12----12----------------------------|
D|--------------------------------------------------------------------------|
A|--------------------------------------------------------------------------|
E|--------------------------------------------------------------------------|
e|------0-----0-----0-----0--------0-----0-----0-----0----------------------|
B|----0-----0-----0-----0--------0-----0-----0-----0------------------------|
G|--12----9-----14----11----14/16----16----16----16-------------------------|
D|--------------------------------------------------------------------------|
A|--------------------------------------------------------------------------|
E|--------------------------------------------------------------------------|
e|------0-----0-----0-----0-----0-----0-----0-----0-------------------------|
B|----0-----0-----0-----0-----0-----0-----0-----0---------------------------|
G|--12----9-----14----11----12----12----12----12----------------------------|
D|--------------------------------------------------------------------------|
A|--------------------------------------------------------------------------|
E|--------------------------------------------------------------------------|
e|------0-----0------------0-----0-------0-----0-----0-----0----------------|
B|----0-----0------------0-----0-------0-----0-----0-----0------------------|
G|--15----14-----12h14p12----9-----7h9-----9-----9-----9--------------------|
D|--------------------------------------------------------------------------|
A|--------------------------------------------------------------------------|
E|--------------------------------------------------------------------------|
2x
e|------0-------------------------------0----------12----------------|
B|----0--------------------------------0----------12-----------------|
G|--15----14h15p14--12----------------0----------12------------------|
D|-----------------------------------2----------14-------------------|
A|----------------------------------2--------------------------------|
E|---------------------------------0---------------------------------|
STRUM
************************************
| /   slide up
| \   slide down
| h   hammer-on
| p   pull-off
| ~   vibrato
| +   harmonic
| x   Mute note
| b   Bend
| pb  Pre-bend
| br  Bend release
| pbr Pre-bend release
| brb Bend release bend
************************************

Leave a Reply

Ce site utilise Akismet pour réduire les indésirables. En savoir plus sur comment les données de vos commentaires sont utilisées.