The Cure

The Cure – A forest

Tablature guitare de la chanson “A forest” du groupe The Cure.

Clip vidéo

Tablature, accords:

Pt. I
e|--------------------|
B|--------------------|
G|-----2--------------|
D|----------3---2---3-|
A|--0-----0---0---0---|
E|--------------------|

Pt. II
e|----------------------------|
B|----------0-1---------------|
G|-----2--------2-0-----------|
D|------------------3-2-0-----|
A|--0-----0---------------3-0-|
E|----------------------------|

Am C F Dadd9

     Am             C
Come closer and see
F                  Dadd9
see into the trees
Am            C
find the girl
F             Dadd9
while you can
     Am             C
Come closer and see
F                 Dadd9
see into the dark
     Am               C
just follow your eyes
     F                Dadd9
just follow your eyes

B C A C
B C A F

Am C F Dadd9

Am C F Dadd9
I hear her voice
calling my name
the sound is deep
in the dark

I hear her voice
and start to run
into the trees
into the trees

B C A C
B C A F

Into the trees

Am C F Dadd9

Am C F Dadd9
Suddenly I stop
but i know it's too late
I'm lost in a forest
all alone

Am C F Dadd9
The girl was never there
it's always the same
I'm running towards nothing
again and again and again. . .

B C A C
and again. . .
B C A F
and again. . .
 
Am C F Dadd9

Leave a Reply

Ce site utilise Akismet pour réduire les indésirables. En savoir plus sur comment les données de vos commentaires sont utilisées.