Cranberries (The)

The Cranberries – Just my imagination

Tablature gratuite de la chanson “Just my imagination” des Cranberries.

Clip vidéo

Voir tous les clips The Cranberries

Tablature, accords, paroles:

Accords:
     A#	   Dm	  Cm    Gm    F
e----6-----5-----3-----3-----1-----|    
B----6-----6-----4-----3-----1-----|
G----7-----7-----5-----3-----2-----|
D----8-----7-----5-----5-----3-----|
A----8-----5-----3-----5-----3-----|
E----6-----5-----3-----3-----1-----|


A#			     Dm
There was a game we used to play,
	 Cm
We would hit the town on friday night,
Gm			F
And stay in bed until sunday,
A#		  Dm
We used to be so free,
	Cm	
we were living for the love we had and,
Gm		F
Living not for reality.

REFRAIN:
A#		      Dm		    Cm
Just my imagination, Just my imagination, Just my imagination,
Gm	F
It was.... 
Just my imagination, Just my imagination, Just my imagination,
It was....

Interlude:
e-------------------------------------------------------------------|    
B------------------3-6-6-6-6-6-6h8-6-4-4-4-4-4-6-4------------------|
G--3-3-3-3-3-3-3-5---------------------------------7-7-7-5-5-5-7-5--|
D-------------------------------------------------------------------|
A-------------------------------------------------------------------|
E-------------------------------------------------------------------|

There was a time i used to pray,
I have always kept my faith in love,
It's the greatest thing from the man above,
The game i used to play,
I've always put my cards upon the table,
Let it never be said that i'd be unstable.

REFRAIN

INTERLUDE

There is a game i like to play,
I like to hit the town on friday night,
And stay in bed until sunday,	
We'll always be this free,
We will living for the love we have,
Living not for reality.

REFRAIN

Leave a Reply

Ce site utilise Akismet pour réduire les indésirables. En savoir plus sur comment les données de vos commentaires sont utilisées.